0
SECTION
2
HEADER
0
ENDSEC
0
SECTION
2
TABLES
0
TABLE
2
LTYPE
0
LTYPE
72
65
70
64
2
CONTINUOUS
3
______
73
0
40
0
0
ENDTAB
0
TABLE
2
LAYER
0
LAYER
2
DEFAULT_255_2_778
70
0
62
255
6
CONTINUOUS
0
LAYER
2
DEFAULT_4_2_778
70
0
62
4
6
CONTINUOUS
0
ENDTAB
0
ENDSEC
0
SECTION
2
ENTITIES
0
LINE
8
DEFAULT_255_2_778
10
11.7822262
20
6.2011585
11
3.1005859
21
6.2011585
0
LINE
8
DEFAULT_255_2_778
10
3.1005859
20
6.2011585
11
3.1005859
21
17.3632675
0
LINE
8
DEFAULT_255_2_778
10
3.1005859
20
17.3632675
11
11.7822262
21
17.3632675
0
LINE
8
DEFAULT_255_2_778
10
11.7822262
20
17.3632675
11
11.7822262
21
6.2011585
0
LINE
8
DEFAULT_255_2_778
10
4.3408202
20
6.2011585
11
10.5419919
21
17.3632675
0
LINE
8
DEFAULT_255_2_778
10
3.1005991
20
33.486314
11
3.1005991
21
22.3242049
0
LINE
8
DEFAULT_255_2_778
10
11.7822262
20
31.0058453
11
3.1005859
21
31.0058453
0
LINE
8
DEFAULT_255_2_778
10
3.1005859
20
24.8046736
11
11.7822262
21
24.8046736
0
LINE
8
DEFAULT_255_2_778
10
67.5927716
20
6.2011717
11
44.0283191
21
6.2011717
0
LINE
8
DEFAULT_255_2_778
10
44.0283191
20
6.2011717
11
44.0283191
21
38.4472646
0
LINE
8
DEFAULT_255_2_778
10
44.0283191
20
38.4472646
11
67.5927716
21
38.4472646
0
LINE
8
DEFAULT_255_2_778
10
67.5927716
20
38.4472646
11
67.5927716
21
6.2011717
0
LINE
8
DEFAULT_255_2_778
10
51.4697384
20
-6.2011849
11
51.4697384
21
14.8827989
0
LINE
8
DEFAULT_255_2_778
10
48.9892697
20
14.8828121
11
53.950207
21
14.8828121
0
LINE
8
DEFAULT_4_2_778
10
48.9892697
20
-6.2011717
11
53.950207
21
-6.2011717
0
LINE
8
DEFAULT_4_2_778
10
51.4697384
20
-8.6816404
11
51.4697384
21
-6.2011717
0
LINE
8
DEFAULT_255_2_778
10
60.1513655
20
6.2011717
11
60.7714827
21
13.6425777
0
LINE
8
DEFAULT_255_2_778
10
60.7714827
20
13.6425777
11
55.8105453
21
12.4023434
0
LINE
8
DEFAULT_255_2_778
10
55.8105453
20
12.4023434
11
60.1513655
21
6.2011717
0
LINE
8
DEFAULT_255_2_778
10
60.1513655
20
-6.2011717
11
60.1513655
21
6.2011717
0
LINE
8
DEFAULT_255_2_778
10
60.1513655
20
6.2011717
11
51.4697251
21
38.4472646
0
LINE
8
DEFAULT_255_2_778
10
51.4697251
20
38.4472646
11
51.4697251
21
50.849608
0
LINE
8
DEFAULT_4_2_778
10
57.6709101
20
-6.2011717
11
62.6318474
21
-6.2011717
0
LINE
8
DEFAULT_4_2_778
10
60.1513787
20
-8.6816404
11
60.1513787
21
-6.2011717
0
LINE
8
DEFAULT_4_2_778
10
48.9892697
20
50.849608
11
53.950207
21
50.849608
0
LINE
8
DEFAULT_4_2_778
10
51.4697384
20
53.3300766
11
51.4697384
21
50.849608
0
LINE
8
DEFAULT_255_2_778
10
44.0283191
20
6.2011717
11
20.4638666
21
6.2011717
0
LINE
8
DEFAULT_255_2_778
10
20.4638666
20
6.2011717
11
20.4638666
21
38.4472646
0
LINE
8
DEFAULT_255_2_778
10
20.4638666
20
38.4472646
11
44.0283191
21
38.4472646
0
LINE
8
DEFAULT_255_2_778
10
44.0283191
20
38.4472646
11
44.0283191
21
6.2011717
0
LINE
8
DEFAULT_255_2_778
10
36.5869263
20
6.2011585
11
36.5869263
21
14.8827989
0
LINE
8
DEFAULT_255_2_778
10
34.1064576
20
14.8828121
11
39.067395
21
14.8828121
0
LINE
8
DEFAULT_255_2_778
10
25.4248172
20
31.0058585
11
27.9052859
21
38.4472646
0
LINE
8
DEFAULT_255_2_778
10
27.9052859
20
38.4472646
11
30.3857546
21
31.0058585
0
LINE
8
DEFAULT_255_2_778
10
30.3857546
20
31.0058585
11
25.4248172
21
31.0058585
0
LINE
8
DEFAULT_255_2_778
10
27.9052859
20
6.2011717
11
27.9052859
21
38.4472646
0
LINE
8
DEFAULT_255_2_778
10
11.7822262
20
31.0058585
11
20.4638666
21
31.0058585
0
LINE
8
DEFAULT_255_2_778
10
20.4638666
20
31.0058585
11
20.4638666
21
6.2011717
0
LINE
8
DEFAULT_255_2_778
10
20.4638666
20
6.2011717
11
11.7822262
21
6.2011717
0
LINE
8
DEFAULT_255_2_778
10
11.7822262
20
6.2011717
11
11.7822262
21
31.0058585
0
LINE
8
DEFAULT_255_2_778
10
11.7822395
20
31.0058585
11
16.7431768
21
18.6035151
0
LINE
8
DEFAULT_255_2_778
10
16.7431768
20
18.6035151
11
11.7822395
21
6.2011717
0
LINE
8
DEFAULT_255_2_778
10
76.2744252
20
6.2011717
11
75.0341908
21
17.3632808
0
LINE
8
DEFAULT_255_2_778
10
75.0341908
20
17.3632808
11
73.7939565
21
6.2011717
0
LINE
8
DEFAULT_255_2_778
10
73.7939565
20
6.2011717
11
72.5537221
21
17.3632808
0
LINE
8
DEFAULT_255_2_778
10
72.5537221
20
17.3632808
11
71.3134878
21
6.2011717
0
LINE
8
DEFAULT_255_2_778
10
71.3134878
20
6.2011717
11
70.0732535
21
17.3632808
0
LINE
8
DEFAULT_255_2_778
10
70.0732535
20
17.3632808
11
68.8330191
21
6.2011717
0
LINE
8
DEFAULT_255_2_778
10
68.8330191
20
6.2011717
11
67.5927848
21
17.3632808
0
ENDSEC
0
EOF