0
SECTION
2
HEADER
0
ENDSEC
0
SECTION
2
TABLES
0
TABLE
2
LTYPE
0
LTYPE
72
65
70
64
2
CONTINUOUS
3
______
73
0
40
0
0
ENDTAB
0
TABLE
2
LAYER
0
LAYER
2
DEFAULT_255_2_778
70
0
62
255
6
CONTINUOUS
0
LAYER
2
DEFAULT_4_2_778
70
0
62
4
6
CONTINUOUS
0
ENDTAB
0
ENDSEC
0
SECTION
2
ENTITIES
0
LINE
8
DEFAULT_255_2_778
10
8.6816404
20
6.2011585
11
1.2402343
21
6.2011585
0
LINE
8
DEFAULT_255_2_778
10
1.2402343
20
6.2011585
11
1.2402343
21
17.3632675
0
LINE
8
DEFAULT_255_2_778
10
1.2402343
20
17.3632675
11
8.6816404
21
17.3632675
0
LINE
8
DEFAULT_255_2_778
10
8.6816404
20
17.3632675
11
8.6816404
21
6.2011585
0
LINE
8
DEFAULT_255_2_778
10
2.4804687
20
6.2011585
11
7.441406
21
17.3632675
0
LINE
8
DEFAULT_255_2_778
10
8.6816404
20
31.0058585
11
16.1230464
21
31.0058585
0
LINE
8
DEFAULT_255_2_778
10
16.1230464
20
31.0058585
11
16.1230464
21
6.2011717
0
LINE
8
DEFAULT_255_2_778
10
16.1230464
20
6.2011717
11
8.6816404
21
6.2011717
0
LINE
8
DEFAULT_255_2_778
10
8.6816404
20
6.2011717
11
8.6816404
21
31.0058585
0
LINE
8
DEFAULT_255_2_778
10
8.6816404
20
31.0058585
11
13.6425777
21
18.6035151
0
LINE
8
DEFAULT_255_2_778
10
13.6425777
20
18.6035151
11
8.6816404
21
6.2011717
0
LINE
8
DEFAULT_255_2_778
10
1.2402343
20
33.4863272
11
1.2402343
21
22.3242181
0
LINE
8
DEFAULT_255_2_778
10
8.6816404
20
31.0058453
11
1.2402343
21
31.0058453
0
LINE
8
DEFAULT_255_2_778
10
1.2402343
20
24.8046736
11
8.6816404
21
24.8046736
0
LINE
8
DEFAULT_255_2_778
10
39.6875121
20
6.2011717
11
16.1230597
21
6.2011717
0
LINE
8
DEFAULT_255_2_778
10
16.1230597
20
6.2011717
11
16.1230597
21
38.4472646
0
LINE
8
DEFAULT_255_2_778
10
16.1230597
20
38.4472646
11
39.6875121
21
38.4472646
0
LINE
8
DEFAULT_255_2_778
10
39.6875121
20
38.4472646
11
39.6875121
21
6.2011717
0
LINE
8
DEFAULT_255_2_778
10
55.8105453
20
-6.2011849
11
55.8105453
21
14.8827989
0
LINE
8
DEFAULT_255_2_778
10
53.3300766
20
14.8828121
11
58.291014
21
14.8828121
0
LINE
8
DEFAULT_255_2_778
10
44.6484363
20
31.0058585
11
47.1289049
21
38.4472646
0
LINE
8
DEFAULT_255_2_778
10
47.1289049
20
38.4472646
11
49.6093736
21
31.0058585
0
LINE
8
DEFAULT_255_2_778
10
49.6093736
20
31.0058585
11
44.6484363
21
31.0058585
0
LINE
8
DEFAULT_255_2_778
10
47.1289049
20
-6.2011717
11
47.1289049
21
50.849608
0
LINE
8
DEFAULT_255_2_778
10
63.2519646
20
6.2011717
11
39.6875121
21
6.2011717
0
LINE
8
DEFAULT_255_2_778
10
39.6875121
20
6.2011717
11
39.6875121
21
38.4472646
0
LINE
8
DEFAULT_255_2_778
10
39.6875121
20
38.4472646
11
63.2519646
21
38.4472646
0
LINE
8
DEFAULT_255_2_778
10
63.2519646
20
38.4472646
11
63.2519646
21
6.2011717
0
LINE
8
DEFAULT_255_2_778
10
23.5644525
20
6.2011585
11
23.5644525
21
14.8827989
0
LINE
8
DEFAULT_255_2_778
10
21.0839838
20
14.8828121
11
26.0449212
21
14.8828121
0
LINE
8
DEFAULT_255_2_778
10
32.2461061
20
6.2011717
11
23.5644657
21
38.4472646
0
LINE
8
DEFAULT_255_2_778
10
32.2461061
20
6.2011717
11
32.8662233
21
13.6425777
0
LINE
8
DEFAULT_255_2_778
10
32.8662233
20
13.6425777
11
27.9052859
21
12.4023434
0
LINE
8
DEFAULT_255_2_778
10
27.9052859
20
12.4023434
11
32.2461061
21
6.2011717
0
LINE
8
DEFAULT_255_2_778
10
63.2519514
20
31.0058585
11
70.6933574
21
31.0058585
0
LINE
8
DEFAULT_255_2_778
10
70.6933574
20
31.0058585
11
70.6933574
21
6.2011717
0
LINE
8
DEFAULT_255_2_778
10
70.6933574
20
6.2011717
11
63.2519514
21
6.2011717
0
LINE
8
DEFAULT_255_2_778
10
63.2519514
20
6.2011717
11
63.2519514
21
31.0058585
0
LINE
8
DEFAULT_255_2_778
10
70.6933574
20
31.0058585
11
65.73242
21
18.6035151
0
LINE
8
DEFAULT_255_2_778
10
65.73242
20
18.6035151
11
70.6933574
21
6.2011717
0
LINE
8
DEFAULT_255_2_778
10
78.1347635
20
6.2011585
11
70.6933574
21
6.2011585
0
LINE
8
DEFAULT_255_2_778
10
70.6933574
20
6.2011585
11
70.6933574
21
17.3632675
0
LINE
8
DEFAULT_255_2_778
10
70.6933574
20
17.3632675
11
78.1347635
21
17.3632675
0
LINE
8
DEFAULT_255_2_778
10
78.1347635
20
17.3632675
11
78.1347635
21
6.2011585
0
LINE
8
DEFAULT_255_2_778
10
76.8945291
20
6.2011585
11
71.9335917
21
17.3632675
0
LINE
8
DEFAULT_255_2_778
10
78.1347635
20
33.486314
11
78.1347635
21
22.3242049
0
LINE
8
DEFAULT_255_2_778
10
70.6933574
20
31.0058453
11
78.1347635
21
31.0058453
0
LINE
8
DEFAULT_255_2_778
10
78.1347635
20
24.8046736
11
70.6933574
21
24.8046736
0
LINE
8
DEFAULT_4_2_778
10
44.6484363
20
-6.2011717
11
49.6093736
21
-6.2011717
0
LINE
8
DEFAULT_4_2_778
10
47.1289049
20
-8.6816404
11
47.1289049
21
-6.2011717
0
LINE
8
DEFAULT_4_2_778
10
44.6484363
20
50.849608
11
49.6093736
21
50.849608
0
LINE
8
DEFAULT_4_2_778
10
47.1289049
20
53.3300766
11
47.1289049
21
50.849608
0
LINE
8
DEFAULT_4_2_778
10
53.3300766
20
-6.2011717
11
58.291014
21
-6.2011717
0
LINE
8
DEFAULT_4_2_778
10
55.8105453
20
-8.6816404
11
55.8105453
21
-6.2011717
0
ENDSEC
0
EOF