0
SECTION
2
HEADER
0
ENDSEC
0
SECTION
2
TABLES
0
TABLE
2
LTYPE
0
LTYPE
72
65
70
64
2
CONTINUOUS
3
______
73
0
40
0
0
ENDTAB
0
TABLE
2
LAYER
0
LAYER
2
DEFAULT_255_2_778
70
0
62
255
6
CONTINUOUS
0
LAYER
2
DEFAULT_4_2_778
70
0
62
4
6
CONTINUOUS
0
ENDTAB
0
ENDSEC
0
SECTION
2
ENTITIES
0
LINE
8
DEFAULT_255_2_778
10
6.8213021
20
6.2011585
11
6.8213021
21
17.3632675
0
LINE
8
DEFAULT_255_2_778
10
15.5029293
20
8.6816404
11
6.8212889
21
8.6816404
0
LINE
8
DEFAULT_255_2_778
10
6.8212889
20
14.8828121
11
15.5029293
21
14.8828121
0
ARC
8
0
10
6.828851
20
19.8473552
40
2.4880202
50
159.6502991
51
180.0830354
0
ARC
8
0
10
6.8156882
20
19.8489528
40
2.4751252
50
100.6655554
51
159.5790135
0
ARC
8
0
10
6.8199442
20
19.8114024
40
2.5128161
50
89.9690371
51
100.6024594
0
ARC
8
0
10
6.8249086
20
19.8362043
40
2.4880164
50
69.6502704
51
90.0830524
0
ARC
8
0
10
6.8265059
20
19.8493639
40
2.4751247
50
10.665536
51
69.579004
0
ARC
8
0
10
6.7889595
20
19.8451074
40
2.5128117
50
359.9690373
51
10.6024688
0
ARC
8
0
10
6.8137532
20
19.8401437
40
2.4880202
50
339.6502991
51
0.0830354
0
ARC
8
0
10
6.826916
20
19.8385461
40
2.4751252
50
280.6655554
51
339.5790135
0
ARC
8
0
10
6.82266
20
19.8760965
40
2.5128161
50
269.9690371
51
280.6024594
0
ARC
8
0
10
6.8176956
20
19.8512946
40
2.4880164
50
249.6502704
51
270.0830524
0
ARC
8
0
10
6.8160983
20
19.838135
40
2.4751247
50
190.665536
51
249.579004
0
ARC
8
0
10
6.8536448
20
19.8423915
40
2.5128117
50
179.9690373
51
190.6024688
0
LINE
8
DEFAULT_255_2_778
10
4.3408334
20
19.8437494
11
4.3408334
21
19.8437494
0
LINE
8
DEFAULT_255_2_778
10
62.6318474
20
6.2011717
11
75.0341908
21
6.2011717
0
LINE
8
DEFAULT_255_2_778
10
75.0341908
20
6.2011717
11
75.0341908
21
16.1230464
0
LINE
8
DEFAULT_255_2_778
10
75.0341908
20
16.1230464
11
71.933605
21
16.1230464
0
LINE
8
DEFAULT_255_2_778
10
71.933605
20
16.1230464
11
70.9004962
21
12.8153431
0
LINE
8
DEFAULT_255_2_778
10
70.9004962
20
12.8153431
11
69.8661279
21
16.1230464
0
LINE
8
DEFAULT_255_2_778
10
69.8661279
20
16.1230464
11
67.7986669
21
16.1230464
0
LINE
8
DEFAULT_255_2_778
10
67.7986669
20
16.1230464
11
66.7655461
21
12.8153431
0
LINE
8
DEFAULT_255_2_778
10
66.7655461
20
12.8153431
11
65.7324333
21
16.1230464
0
LINE
8
DEFAULT_255_2_778
10
65.7324333
20
16.1230464
11
62.6318474
21
16.1230464
0
LINE
8
DEFAULT_255_2_778
10
62.6318474
20
16.1230464
11
62.6318474
21
6.2011717
0
LINE
8
DEFAULT_255_2_778
10
68.8330191
20
18.6035019
11
68.8330191
21
22.3242049
0
LINE
8
DEFAULT_255_2_778
10
39.0673817
20
6.2011717
11
15.5029293
21
6.2011717
0
LINE
8
DEFAULT_255_2_778
10
15.5029293
20
6.2011717
11
15.5029293
21
38.4472646
0
LINE
8
DEFAULT_255_2_778
10
15.5029293
20
38.4472646
11
39.0673817
21
38.4472646
0
LINE
8
DEFAULT_255_2_778
10
39.0673817
20
38.4472646
11
39.0673817
21
6.2011717
0
LINE
8
DEFAULT_255_2_778
10
31.6259889
20
6.2011585
11
31.6259889
21
14.8827989
0
LINE
8
DEFAULT_255_2_778
10
29.1455202
20
14.8828121
11
34.1064576
21
14.8828121
0
LINE
8
DEFAULT_255_2_778
10
20.4638798
20
31.0058585
11
22.9443485
21
38.4472646
0
LINE
8
DEFAULT_255_2_778
10
22.9443485
20
38.4472646
11
25.4248172
21
31.0058585
0
LINE
8
DEFAULT_255_2_778
10
25.4248172
20
31.0058585
11
20.4638798
21
31.0058585
0
LINE
8
DEFAULT_255_2_778
10
22.9443485
20
6.2011717
11
22.9443485
21
38.4472646
0
LINE
8
DEFAULT_255_2_778
10
62.6318342
20
6.2011717
11
39.0673817
21
6.2011717
0
LINE
8
DEFAULT_255_2_778
10
39.0673817
20
6.2011717
11
39.0673817
21
38.4472646
0
LINE
8
DEFAULT_255_2_778
10
39.0673817
20
38.4472646
11
62.6318342
21
38.4472646
0
LINE
8
DEFAULT_255_2_778
10
62.6318342
20
38.4472646
11
62.6318342
21
6.2011717
0
LINE
8
DEFAULT_255_2_778
10
46.508801
20
-6.2011849
11
46.508801
21
14.8827989
0
LINE
8
DEFAULT_255_2_778
10
44.0283323
20
14.8828121
11
48.9892697
21
14.8828121
0
LINE
8
DEFAULT_255_2_778
10
55.1904282
20
-6.2011717
11
55.1904282
21
6.2011717
0
LINE
8
DEFAULT_255_2_778
10
55.1904282
20
6.2011717
11
46.5087878
21
38.4472646
0
LINE
8
DEFAULT_255_2_778
10
46.5087878
20
38.4472646
11
46.5087878
21
50.849608
0
LINE
8
DEFAULT_255_2_778
10
55.1904282
20
6.2011717
11
55.8105453
21
13.6425777
0
LINE
8
DEFAULT_255_2_778
10
55.8105453
20
13.6425777
11
50.849608
21
12.4023434
0
LINE
8
DEFAULT_255_2_778
10
50.849608
20
12.4023434
11
55.1904282
21
6.2011717
0
LINE
8
DEFAULT_4_2_778
10
44.0283323
20
-6.2011717
11
48.9892697
21
-6.2011717
0
LINE
8
DEFAULT_4_2_778
10
46.508801
20
-8.6816404
11
46.508801
21
-6.2011717
0
LINE
8
DEFAULT_4_2_778
10
44.0283323
20
50.849608
11
48.9892697
21
50.849608
0
LINE
8
DEFAULT_4_2_778
10
46.508801
20
53.3300766
11
46.508801
21
50.849608
0
LINE
8
DEFAULT_4_2_778
10
52.7099727
20
-6.2011717
11
57.6709101
21
-6.2011717
0
LINE
8
DEFAULT_4_2_778
10
55.1904414
20
-8.6816404
11
55.1904414
21
-6.2011717
0
ENDSEC
0
EOF