0
SECTION
2
HEADER
0
ENDSEC
0
SECTION
2
TABLES
0
TABLE
2
LTYPE
0
LTYPE
72
65
70
64
2
CONTINUOUS
3
______
73
0
40
0
0
ENDTAB
0
TABLE
2
LAYER
0
LAYER
2
DEFAULT_255_2_778
70
0
62
255
6
CONTINUOUS
0
LAYER
2
DEFAULT_4_2_778
70
0
62
4
6
CONTINUOUS
0
ENDTAB
0
ENDSEC
0
SECTION
2
ENTITIES
0
LINE
8
DEFAULT_255_2_778
10
45.2685534
20
6.2011717
11
21.704101
21
6.2011717
0
LINE
8
DEFAULT_255_2_778
10
21.704101
20
6.2011717
11
21.704101
21
38.4472646
0
LINE
8
DEFAULT_255_2_778
10
21.704101
20
38.4472646
11
45.2685534
21
38.4472646
0
LINE
8
DEFAULT_255_2_778
10
45.2685534
20
38.4472646
11
45.2685534
21
6.2011717
0
LINE
8
DEFAULT_255_2_778
10
37.8271606
20
6.2011585
11
37.8271606
21
14.8827989
0
LINE
8
DEFAULT_255_2_778
10
35.3466919
20
14.8828121
11
40.3076293
21
14.8828121
0
LINE
8
DEFAULT_255_2_778
10
26.6650515
20
31.0058585
11
29.1455202
21
38.4472646
0
LINE
8
DEFAULT_255_2_778
10
29.1455202
20
38.4472646
11
31.6259889
21
31.0058585
0
LINE
8
DEFAULT_255_2_778
10
31.6259889
20
31.0058585
11
26.6650515
21
31.0058585
0
LINE
8
DEFAULT_255_2_778
10
29.1455202
20
6.2011717
11
29.1455202
21
38.4472646
0
LINE
8
DEFAULT_255_2_778
10
68.8330059
20
6.2011717
11
45.2685534
21
6.2011717
0
LINE
8
DEFAULT_255_2_778
10
45.2685534
20
6.2011717
11
45.2685534
21
38.4472646
0
LINE
8
DEFAULT_255_2_778
10
45.2685534
20
38.4472646
11
68.8330059
21
38.4472646
0
LINE
8
DEFAULT_255_2_778
10
68.8330059
20
38.4472646
11
68.8330059
21
6.2011717
0
LINE
8
DEFAULT_255_2_778
10
52.7099727
20
-6.2011849
11
52.7099727
21
14.8827989
0
LINE
8
DEFAULT_255_2_778
10
50.229504
20
14.8828121
11
55.1904414
21
14.8828121
0
LINE
8
DEFAULT_255_2_778
10
61.3915999
20
6.2011717
11
52.7099595
21
38.4472646
0
LINE
8
DEFAULT_255_2_778
10
52.7099595
20
38.4472646
11
52.7099595
21
50.849608
0
LINE
8
DEFAULT_255_2_778
10
61.3915999
20
6.2011717
11
62.011717
21
13.6425777
0
LINE
8
DEFAULT_255_2_778
10
62.011717
20
13.6425777
11
57.0507797
21
12.4023434
0
LINE
8
DEFAULT_255_2_778
10
57.0507797
20
12.4023434
11
61.3915999
21
6.2011717
0
LINE
8
DEFAULT_4_2_778
10
50.229504
20
-6.2011717
11
55.1904414
21
-6.2011717
0
LINE
8
DEFAULT_4_2_778
10
52.7099727
20
-8.6816404
11
52.7099727
21
-6.2011717
0
LINE
8
DEFAULT_4_2_778
10
50.229504
20
50.849608
11
55.1904414
21
50.849608
0
LINE
8
DEFAULT_4_2_778
10
52.7099727
20
53.3300766
11
52.7099727
21
50.849608
0
LINE
8
DEFAULT_255_2_778
10
65.1123161
20
6.2011585
11
61.3916131
21
2.4804555
0
LINE
8
DEFAULT_255_2_778
10
61.3916131
20
2.4804555
11
57.6709101
21
6.2011585
0
LINE
8
DEFAULT_255_2_778
10
61.3916131
20
-6.8212823
11
61.3916131
21
2.4804753
0
LINE
8
DEFAULT_4_2_778
10
58.9111444
20
-6.2011717
11
63.8720818
21
-6.2011717
0
LINE
8
DEFAULT_4_2_778
10
61.3916131
20
-8.6816404
11
61.3916131
21
-6.2011717
0
LINE
8
DEFAULT_255_2_778
10
77.5146463
20
6.2011585
11
76.2744119
21
17.3632675
0
LINE
8
DEFAULT_255_2_778
10
76.2744119
20
17.3632675
11
75.0341776
21
6.2011585
0
LINE
8
DEFAULT_255_2_778
10
75.0341776
20
6.2011585
11
73.7939433
21
17.3632675
0
LINE
8
DEFAULT_255_2_778
10
73.7939433
20
17.3632675
11
72.5537089
21
6.2011585
0
LINE
8
DEFAULT_255_2_778
10
72.5537089
20
6.2011585
11
71.3134746
21
17.3632675
0
LINE
8
DEFAULT_255_2_778
10
71.3134746
20
17.3632675
11
70.0732402
21
6.2011585
0
LINE
8
DEFAULT_255_2_778
10
70.0732402
20
6.2011585
11
68.8330059
21
17.3632675
0
LINE
8
DEFAULT_255_2_778
10
9.0448967
20
17.7705949
11
13.4297892
21
13.3857044
0
LINE
8
DEFAULT_255_2_778
10
13.4297892
20
13.3857044
11
10.7988533
21
10.7547685
0
LINE
8
DEFAULT_255_2_778
10
10.7988533
20
10.7547685
11
6.4139603
21
15.139659
0
LINE
8
DEFAULT_255_2_778
10
6.4139603
20
15.139659
11
9.0448967
21
17.7705949
0
LINE
8
DEFAULT_255_2_778
10
21.704101
20
11.1621091
11
17.9833979
21
11.1621091
0
LINE
8
DEFAULT_255_2_778
10
21.704101
20
8.6816404
11
17.9833979
21
8.6816404
0
ARC
8
0
10
14.2886894
20
9.9256755
40
3.7466862
50
164.2493201
51
180.058123
0
ARC
8
0
10
14.2485148
20
9.9332738
40
3.7059592
50
136.0208426
51
164.1937789
0
ARC
8
0
10
14.2522356
20
9.9343244
40
3.7079086
50
106.5476101
51
136.0724497
0
ARC
8
0
10
14.2581657
20
9.9009708
40
3.7415717
50
90.4624277
51
106.4891883
0
ARC
8
0
10
14.2627113
20
9.808052
40
3.8345259
50
90.0000467
51
90.519141
0
ARC
8
0
10
14.2665089
20
9.8958963
40
3.7466833
50
74.2493137
51
90.0581229
0
ARC
8
0
10
14.2741078
20
9.9360686
40
3.7059585
50
46.0208516
51
74.1937905
0
ARC
8
0
10
14.2751562
20
9.9323465
40
3.7079103
50
16.5476188
51
46.0724466
0
ARC
8
0
10
14.2418014
20
9.9264172
40
3.7415743
50
0.4624273
51
16.4891818
0
ARC
8
0
10
14.1488836
20
9.9218716
40
3.8345278
50
0.0000467
51
0.519141
0
ARC
8
0
10
14.2367269
20
9.9180739
40
3.7466862
50
344.2493201
51
0.058123
0
ARC
8
0
10
14.2769015
20
9.9104757
40
3.7059592
50
316.0208426
51
344.1937789
0
ARC
8
0
10
14.2731807
20
9.909425
40
3.7079086
50
286.5476101
51
316.0724497
0
ARC
8
0
10
14.2672506
20
9.9427787
40
3.7415717
50
270.4624277
51
286.4891883
0
ARC
8
0
10
14.262705
20
10.0356975
40
3.8345259
50
270.0000467
51
270.519141
0
ARC
8
0
10
14.2589074
20
9.9478531
40
3.7466833
50
254.2493137
51
270.0581229
0
ARC
8
0
10
14.2513085
20
9.9076809
40
3.7059585
50
226.0208516
51
254.1937905
0
ARC
8
0
10
14.2502601
20
9.9114029
40
3.7079103
50
196.5476188
51
226.0724466
0
ARC
8
0
10
14.2836149
20
9.9173322
40
3.7415743
50
180.4624273
51
196.4891818
0
ARC
8
0
10
14.3765327
20
9.9218778
40
3.8345278
50
180.0000467
51
180.519141
0
LINE
8
DEFAULT_255_2_778
10
10.5420051
20
9.9218747
11
10.5420051
21
9.9218747
0
ARC
8
0
10
14.2635491
20
9.9252527
40
1.8611956
50
155.4302692
51
180.1039899
0
ARC
8
0
10
14.2583422
20
9.9258748
40
1.8562021
50
99.7580921
51
155.3809034
0
ARC
8
0
10
14.2618287
20
9.8953089
40
1.8869175
50
89.9732969
51
99.7051212
0
ARC
8
0
10
14.2660868
20
9.9210363
40
1.861193
50
65.4302401
51
90.1040093
0
ARC
8
0
10
14.2667072
20
9.92624
40
1.8562032
50
9.7580986
51
65.380868
0
ARC
8
0
10
14.2361474
20
9.9227543
40
1.8869125
50
359.9732925
51
9.7051351
0
ARC
8
0
10
14.2618672
20
9.9184967
40
1.8611956
50
335.4302692
51
0.1039899
0
ARC
8
0
10
14.2670741
20
9.9178746
40
1.8562021
50
279.7580921
51
335.3809034
0
ARC
8
0
10
14.2635876
20
9.9484405
40
1.8869175
50
269.9732969
51
279.7051212
0
ARC
8
0
10
14.2593295
20
9.9227132
40
1.861193
50
245.4302401
51
270.1040093
0
ARC
8
0
10
14.2587091
20
9.9175094
40
1.8562032
50
189.7580986
51
245.380868
0
ARC
8
0
10
14.2892689
20
9.9209952
40
1.8869125
50
179.9732925
51
189.7051351
0
LINE
8
DEFAULT_255_2_778
10
12.4023566
20
9.9218747
11
12.4023566
21
9.9218747
0
ARC
8
0
10
5.607049
20
18.6073159
40
3.7466862
50
164.24932
51
180.058123
0
ARC
8
0
10
5.5668745
20
18.6149141
40
3.7059593
50
136.0208425
51
164.1937788
0
ARC
8
0
10
5.5705961
20
18.6159631
40
3.7079104
50
106.547614
51
136.0724387
0
ARC
8
0
10
5.5765254
20
18.5826107
40
3.7415721
50
90.4624303
51
106.4891875
0
ARC
8
0
10
5.5810709
20
18.4896928
40
3.8345254
50
90.0000467
51
90.519141
0
ARC
8
0
10
5.5848684
20
18.5775366
40
3.7466834
50
74.2493143
51
90.0581204
0
ARC
8
0
10
5.5924664
20
18.6177079
40
3.7059597
50
46.0208538
51
74.1937831
0
ARC
8
0
10
5.5935177
20
18.6139878
40
3.7079082
50
16.5476142
51
46.0724606
0
ARC
8
0
10
5.560161
20
18.6080576
40
3.7415743
50
0.4624273
51
16.4891818
0
ARC
8
0
10
5.4672432
20
18.603512
40
3.8345278
50
0.0000467
51
0.519141
0
ARC
8
0
10
5.5550865
20
18.5997143
40
3.7466862
50
344.24932
51
0.058123
0
ARC
8
0
10
5.5952609
20
18.5921161
40
3.7059594
50
316.0208424
51
344.1937787
0
ARC
8
0
10
5.5915393
20
18.5910671
40
3.7079104
50
286.5476142
51
316.0724388
0
ARC
8
0
10
5.5856101
20
18.6244192
40
3.7415718
50
270.4624304
51
286.4891876
0
ARC
8
0
10
5.5810646
20
18.7173369
40
3.834525
50
270.0000467
51
270.519141
0
ARC
8
0
10
5.577267
20
18.6294932
40
3.746683
50
254.2493137
51
270.0581228
0
ARC
8
0
10
5.5696682
20
18.5893213
40
3.7059585
50
226.0208515
51
254.1937904
0
ARC
8
0
10
5.5686177
20
18.5930424
40
3.7079082
50
196.5476141
51
226.0724605
0
ARC
8
0
10
5.6019745
20
18.5989726
40
3.7415743
50
180.4624273
51
196.4891818
0
ARC
8
0
10
5.6948924
20
18.6035182
40
3.8345278
50
180.0000467
51
180.519141
0
LINE
8
DEFAULT_255_2_778
10
1.8603647
20
18.6035151
11
1.8603647
21
18.6035151
0
ARC
8
0
10
5.5819087
20
18.6068931
40
1.8611955
50
155.4302695
51
180.1039901
0
ARC
8
0
10
5.5767016
20
18.6075152
40
1.856202
50
99.7580906
51
155.3809028
0
ARC
8
0
10
5.5801882
20
18.5769497
40
1.8869171
50
89.9732923
51
99.7051226
0
ARC
8
0
10
5.5844466
20
18.6026766
40
1.8611931
50
65.4302394
51
90.1040145
0
ARC
8
0
10
5.5850675
20
18.6078811
40
1.8562024
50
9.7580815
51
65.3808736
0
ARC
8
0
10
5.554507
20
18.6043947
40
1.8869125
50
359.9732925
51
9.705135
0
ARC
8
0
10
5.5802268
20
18.6001371
40
1.8611955
50
335.4302695
51
0.1039901
0
ARC
8
0
10
5.5854339
20
18.599515
40
1.856202
50
279.7580906
51
335.3809028
0
ARC
8
0
10
5.5819473
20
18.6300805
40
1.8869171
50
269.9732923
51
279.7051226
0
ARC
8
0
10
5.577689
20
18.6043536
40
1.8611931
50
245.4302394
51
270.1040145
0
ARC
8
0
10
5.577068
20
18.5991491
40
1.8562024
50
189.7580815
51
245.3808736
0
ARC
8
0
10
5.6076285
20
18.6026356
40
1.8869125
50
179.9732925
51
189.705135
0
LINE
8
DEFAULT_255_2_778
10
3.7207163
20
18.6035151
11
3.7207163
21
18.6035151
0
ENDSEC
0
EOF