0
SECTION
2
HEADER
0
ENDSEC
0
SECTION
2
TABLES
0
TABLE
2
LTYPE
0
LTYPE
72
65
70
64
2
CONTINUOUS
3
______
73
0
40
0
0
ENDTAB
0
TABLE
2
LAYER
0
LAYER
2
DEFAULT_255_2_778
70
0
62
255
6
CONTINUOUS
0
LAYER
2
DEFAULT_4_2_778
70
0
62
4
6
CONTINUOUS
0
ENDTAB
0
ENDSEC
0
SECTION
2
ENTITIES
0
LINE
8
DEFAULT_255_2_778
10
42.7880847
20
6.2011717
11
19.2236323
21
6.2011717
0
LINE
8
DEFAULT_255_2_778
10
19.2236323
20
6.2011717
11
19.2236323
21
38.4472646
0
LINE
8
DEFAULT_255_2_778
10
19.2236323
20
38.4472646
11
42.7880847
21
38.4472646
0
LINE
8
DEFAULT_255_2_778
10
42.7880847
20
38.4472646
11
42.7880847
21
6.2011717
0
LINE
8
DEFAULT_255_2_778
10
66.3525372
20
6.2011717
11
42.7880847
21
6.2011717
0
LINE
8
DEFAULT_255_2_778
10
42.7880847
20
6.2011717
11
42.7880847
21
38.4472646
0
LINE
8
DEFAULT_255_2_778
10
42.7880847
20
38.4472646
11
66.3525372
21
38.4472646
0
LINE
8
DEFAULT_255_2_778
10
66.3525372
20
38.4472646
11
66.3525372
21
6.2011717
0
LINE
8
DEFAULT_255_2_778
10
26.6650515
20
6.2011585
11
26.6650515
21
14.8827989
0
LINE
8
DEFAULT_255_2_778
10
24.1845829
20
14.8828121
11
29.1455202
21
14.8828121
0
LINE
8
DEFAULT_255_2_778
10
35.3466787
20
6.2011717
11
26.6650383
21
38.4472646
0
LINE
8
DEFAULT_255_2_778
10
58.9111312
20
6.2011717
11
59.5312483
21
13.6425777
0
LINE
8
DEFAULT_255_2_778
10
59.5312483
20
13.6425777
11
54.570311
21
12.4023434
0
LINE
8
DEFAULT_255_2_778
10
54.570311
20
12.4023434
11
58.9111312
21
6.2011717
0
LINE
8
DEFAULT_255_2_778
10
11.7822395
20
6.2011585
11
4.3408334
21
6.2011585
0
LINE
8
DEFAULT_255_2_778
10
4.3408334
20
6.2011585
11
4.3408334
21
17.3632675
0
LINE
8
DEFAULT_255_2_778
10
4.3408334
20
17.3632675
11
11.7822395
21
17.3632675
0
LINE
8
DEFAULT_255_2_778
10
11.7822395
20
17.3632675
11
11.7822395
21
6.2011585
0
LINE
8
DEFAULT_255_2_778
10
5.5810678
20
6.2011585
11
10.5420051
21
17.3632675
0
LINE
8
DEFAULT_255_2_778
10
11.7822395
20
17.3632675
11
19.2236455
21
17.3632675
0
LINE
8
DEFAULT_255_2_778
10
19.2236455
20
17.3632675
11
19.2236455
21
6.2011585
0
LINE
8
DEFAULT_255_2_778
10
19.2236455
20
6.2011585
11
11.7822395
21
6.2011585
0
LINE
8
DEFAULT_255_2_778
10
11.7822395
20
6.2011585
11
11.7822395
21
17.3632675
0
LINE
8
DEFAULT_255_2_778
10
11.7822395
20
17.3632675
11
16.7431768
21
11.782213
0
LINE
8
DEFAULT_255_2_778
10
16.7431768
20
11.782213
11
11.7822395
21
6.2011585
0
LINE
8
DEFAULT_255_2_778
10
66.3525504
20
17.3632675
11
73.7939565
21
17.3632675
0
LINE
8
DEFAULT_255_2_778
10
73.7939565
20
17.3632675
11
73.7939565
21
6.2011585
0
LINE
8
DEFAULT_255_2_778
10
73.7939565
20
6.2011585
11
66.3525504
21
6.2011585
0
LINE
8
DEFAULT_255_2_778
10
66.3525504
20
6.2011585
11
66.3525504
21
17.3632675
0
LINE
8
DEFAULT_255_2_778
10
73.7939433
20
17.3632808
11
68.8330059
21
11.7822262
0
LINE
8
DEFAULT_255_2_778
10
68.8330059
20
11.7822262
11
73.7939433
21
6.2011717
0
LINE
8
DEFAULT_255_2_778
10
75.0341776
20
27.2851555
11
73.7939433
21
38.4472646
0
LINE
8
DEFAULT_255_2_778
10
73.7939433
20
38.4472646
11
72.5537089
21
27.2851555
0
LINE
8
DEFAULT_255_2_778
10
72.5537089
20
27.2851555
11
71.3134746
21
38.4472646
0
LINE
8
DEFAULT_255_2_778
10
71.3134746
20
38.4472646
11
70.0732402
21
27.2851555
0
LINE
8
DEFAULT_255_2_778
10
70.0732402
20
27.2851555
11
68.8330059
21
38.4472646
0
LINE
8
DEFAULT_255_2_778
10
68.8330059
20
38.4472646
11
67.5927716
21
27.2851555
0
LINE
8
DEFAULT_255_2_778
10
67.5927716
20
27.2851555
11
66.3525372
21
38.4472646
0
LINE
8
DEFAULT_255_2_778
10
50.229504
20
-6.2011849
11
50.229504
21
14.8827989
0
LINE
8
DEFAULT_255_2_778
10
47.7490353
20
14.8828121
11
52.7099727
21
14.8828121
0
LINE
8
DEFAULT_255_2_778
10
58.9111312
20
-6.2011717
11
58.9111312
21
6.2011717
0
LINE
8
DEFAULT_255_2_778
10
58.9111312
20
6.2011717
11
50.2294908
21
38.4472646
0
LINE
8
DEFAULT_255_2_778
10
50.2294908
20
38.4472646
11
50.2294908
21
50.849608
0
LINE
8
DEFAULT_255_2_778
10
26.6650383
20
38.4472646
11
26.0449212
21
31.0058585
0
LINE
8
DEFAULT_255_2_778
10
26.0449212
20
31.0058585
11
31.0058585
21
32.2460929
0
LINE
8
DEFAULT_255_2_778
10
31.0058585
20
32.2460929
11
26.6650383
21
38.4472646
0
LINE
8
DEFAULT_4_2_778
10
47.7490353
20
-6.2011717
11
52.7099727
21
-6.2011717
0
LINE
8
DEFAULT_4_2_778
10
50.229504
20
-8.6816404
11
50.229504
21
-6.2011717
0
LINE
8
DEFAULT_4_2_778
10
47.7490353
20
50.849608
11
52.7099727
21
50.849608
0
LINE
8
DEFAULT_4_2_778
10
50.229504
20
53.3300766
11
50.229504
21
50.849608
0
LINE
8
DEFAULT_4_2_778
10
56.4306757
20
-6.2011717
11
61.3916131
21
-6.2011717
0
LINE
8
DEFAULT_4_2_778
10
58.9111444
20
-8.6816404
11
58.9111444
21
-6.2011717
0
ENDSEC
0
EOF