0
SECTION
2
HEADER
0
ENDSEC
0
SECTION
2
TABLES
0
TABLE
2
LTYPE
0
LTYPE
72
65
70
64
2
CONTINUOUS
3
______
73
0
40
0
0
ENDTAB
0
TABLE
2
LAYER
0
LAYER
2
DEFAULT_255_2_778
70
0
62
255
6
CONTINUOUS
0
LAYER
2
DEFAULT_4_2_778
70
0
62
4
6
CONTINUOUS
0
ENDTAB
0
ENDSEC
0
SECTION
2
ENTITIES
0
LINE
8
DEFAULT_255_2_778
10
67.5927716
20
8.6816404
11
41.5478504
21
8.6816404
0
LINE
8
DEFAULT_255_2_778
10
41.5478504
20
8.6816404
11
41.5478504
21
35.9667959
0
LINE
8
DEFAULT_255_2_778
10
41.5478504
20
35.9667959
11
67.5927716
21
35.9667959
0
LINE
8
DEFAULT_255_2_778
10
67.5927716
20
35.9667959
11
67.5927716
21
8.6816404
0
LINE
8
DEFAULT_255_2_778
10
41.5478372
20
8.6816404
11
16.7431504
21
8.6816404
0
LINE
8
DEFAULT_255_2_778
10
16.7431504
20
8.6816404
11
16.7431504
21
35.9667959
0
LINE
8
DEFAULT_255_2_778
10
16.7431504
20
35.9667959
11
41.5478372
21
35.9667959
0
LINE
8
DEFAULT_255_2_778
10
41.5478372
20
35.9667959
11
41.5478372
21
8.6816404
0
LINE
8
DEFAULT_255_2_778
10
36.5868998
20
35.9667959
11
36.5868998
21
8.6816404
0
LINE
8
DEFAULT_255_2_778
10
34.1064311
20
16.1230332
11
36.5868998
21
8.6816272
0
LINE
8
DEFAULT_255_2_778
10
36.5868998
20
8.6816272
11
39.0673685
21
16.1230332
0
LINE
8
DEFAULT_255_2_778
10
39.0673685
20
16.1230332
11
34.1064311
21
16.1230332
0
LINE
8
DEFAULT_255_2_778
10
4.340807
20
19.8437362
11
10.5419787
21
19.8437362
0
LINE
8
DEFAULT_255_2_778
10
10.5419787
20
19.8437362
11
10.5419787
21
8.6816272
0
LINE
8
DEFAULT_255_2_778
10
10.5419787
20
8.6816272
11
4.340807
21
8.6816272
0
LINE
8
DEFAULT_255_2_778
10
4.340807
20
8.6816272
11
4.340807
21
19.8437362
0
LINE
8
DEFAULT_255_2_778
10
9.3017576
20
19.8437362
11
5.5810545
21
8.6816272
0
LINE
8
DEFAULT_255_2_778
10
4.3408334
20
24.8046736
11
4.3408334
21
35.9667826
0
LINE
8
DEFAULT_255_2_778
10
10.5419919
20
27.2851555
11
4.3408202
21
27.2851555
0
LINE
8
DEFAULT_255_2_778
10
4.3408202
20
33.4863272
11
10.5419919
21
33.4863272
0
LINE
8
DEFAULT_255_2_778
10
75.0341674
20
8.6816404
11
73.9712882
21
19.8437494
0
LINE
8
DEFAULT_255_2_778
10
73.9712882
20
19.8437494
11
72.908409
21
8.6816404
0
LINE
8
DEFAULT_255_2_778
10
72.908409
20
8.6816404
11
71.8455298
21
19.8437494
0
LINE
8
DEFAULT_255_2_778
10
71.8455298
20
19.8437494
11
70.7826344
21
8.6816404
0
LINE
8
DEFAULT_255_2_778
10
70.7826344
20
8.6816404
11
69.7197552
21
19.8437494
0
LINE
8
DEFAULT_255_2_778
10
69.7197552
20
19.8437494
11
68.656876
21
8.6816404
0
LINE
8
DEFAULT_255_2_778
10
68.656876
20
8.6816404
11
67.5940008
21
19.8437494
0
LINE
8
DEFAULT_255_2_778
10
21.7053282
20
35.9667959
11
30.3869686
21
8.6816404
0
LINE
8
DEFAULT_255_2_778
10
21.704101
20
35.9667959
11
21.0839838
21
28.5253898
0
LINE
8
DEFAULT_255_2_778
10
21.0839838
20
28.5253898
11
26.0449212
21
29.7656242
0
LINE
8
DEFAULT_255_2_778
10
26.0449212
20
29.7656242
11
21.704101
21
35.9667959
0
LINE
8
DEFAULT_255_2_778
10
21.7041142
20
8.6816272
11
21.7041142
21
17.3632675
0
LINE
8
DEFAULT_255_2_778
10
19.223619
20
17.3632808
11
24.1845564
21
17.3632808
0
LINE
8
DEFAULT_255_2_778
10
46.5087745
20
50.849608
11
46.5087745
21
-6.2011717
0
LINE
8
DEFAULT_255_2_778
10
48.9892564
20
16.1230464
11
46.5087878
21
8.6816404
0
LINE
8
DEFAULT_255_2_778
10
46.5087878
20
8.6816404
11
44.0283191
21
16.1230464
0
LINE
8
DEFAULT_255_2_778
10
44.0283191
20
16.1230464
11
48.9892564
21
16.1230464
0
LINE
8
DEFAULT_255_2_778
10
62.6318342
20
50.849608
11
62.6318342
21
35.9667959
0
LINE
8
DEFAULT_255_2_778
10
62.6318342
20
35.9667959
11
53.9501938
21
8.6816404
0
LINE
8
DEFAULT_255_2_778
10
53.9501938
20
8.6816404
11
53.9501938
21
-6.2011717
0
LINE
8
DEFAULT_255_2_778
10
62.6318342
20
35.9667959
11
63.2519514
21
28.5253898
0
LINE
8
DEFAULT_255_2_778
10
63.2519514
20
28.5253898
11
58.291014
21
29.7656242
0
LINE
8
DEFAULT_255_2_778
10
58.291014
20
29.7656242
11
62.6318342
21
35.9667959
0
LINE
8
DEFAULT_255_2_778
10
61.3916131
20
-6.2011849
11
61.3916131
21
17.3632675
0
LINE
8
DEFAULT_255_2_778
10
63.8720818
20
17.3632808
11
58.9111444
21
17.3632808
0
LINE
8
DEFAULT_4_2_778
10
44.0283059
20
50.849608
11
48.9892432
21
50.849608
0
LINE
8
DEFAULT_4_2_778
10
46.5087745
20
53.3300766
11
46.5087745
21
50.849608
0
LINE
8
DEFAULT_4_2_778
10
60.1513523
20
50.849608
11
65.1122896
21
50.849608
0
LINE
8
DEFAULT_4_2_778
10
62.631821
20
53.3300766
11
62.631821
21
50.849608
0
LINE
8
DEFAULT_4_2_778
10
44.0283059
20
-6.2011717
11
48.9892432
21
-6.2011717
0
LINE
8
DEFAULT_4_2_778
10
46.5087745
20
-8.6816404
11
46.5087745
21
-6.2011717
0
LINE
8
DEFAULT_4_2_778
10
51.4697119
20
-6.2011717
11
56.4306493
21
-6.2011717
0
LINE
8
DEFAULT_4_2_778
10
53.9501806
20
-8.6816404
11
53.9501806
21
-6.2011717
0
LINE
8
DEFAULT_4_2_778
10
58.9111179
20
-6.2011717
11
63.8720553
21
-6.2011717
0
LINE
8
DEFAULT_4_2_778
10
61.3916131
20
-8.6816404
11
61.3916131
21
-6.2011717
0
LINE
8
DEFAULT_255_2_778
10
16.7431636
20
8.6816404
11
10.5419919
21
8.6816404
0
LINE
8
DEFAULT_255_2_778
10
10.5419919
20
8.6816404
11
10.5419919
21
33.4863272
0
LINE
8
DEFAULT_255_2_778
10
10.5419919
20
33.4863272
11
16.7431636
21
33.4863272
0
LINE
8
DEFAULT_255_2_778
10
16.7431636
20
33.4863272
11
16.7431636
21
8.6816404
0
LINE
8
DEFAULT_255_2_778
10
10.5419919
20
8.6816404
11
14.2626949
21
21.0839838
0
LINE
8
DEFAULT_255_2_778
10
14.2626949
20
21.0839838
11
10.5419919
21
33.4863272
0
ENDSEC
0
EOF