0
SECTION
2
HEADER
0
ENDSEC
0
SECTION
2
TABLES
0
TABLE
2
LTYPE
0
LTYPE
72
65
70
64
2
CONTINUOUS
3
______
73
0
40
0
0
ENDTAB
0
TABLE
2
LAYER
0
LAYER
2
DEFAULT_255_2_778
70
0
62
255
6
CONTINUOUS
0
LAYER
2
DEFAULT_4_2_778
70
0
62
4
6
CONTINUOUS
0
ENDTAB
0
ENDSEC
0
SECTION
2
ENTITIES
0
LINE
8
DEFAULT_255_2_778
10
68.2128755
20
8.6816404
11
42.1679543
21
8.6816404
0
LINE
8
DEFAULT_255_2_778
10
42.1679543
20
8.6816404
11
42.1679543
21
35.9667959
0
LINE
8
DEFAULT_255_2_778
10
42.1679543
20
35.9667959
11
68.2128755
21
35.9667959
0
LINE
8
DEFAULT_255_2_778
10
68.2128755
20
35.9667959
11
68.2128755
21
8.6816404
0
LINE
8
DEFAULT_255_2_778
10
42.1679676
20
8.6816404
11
17.3632808
21
8.6816404
0
LINE
8
DEFAULT_255_2_778
10
17.3632808
20
8.6816404
11
17.3632808
21
35.9667959
0
LINE
8
DEFAULT_255_2_778
10
17.3632808
20
35.9667959
11
42.1679676
21
35.9667959
0
LINE
8
DEFAULT_255_2_778
10
42.1679676
20
35.9667959
11
42.1679676
21
8.6816404
0
LINE
8
DEFAULT_255_2_778
10
37.2070302
20
35.9667959
11
37.2070302
21
8.6816404
0
LINE
8
DEFAULT_255_2_778
10
34.7265646
20
16.1230464
11
37.2070333
21
8.6816404
0
LINE
8
DEFAULT_255_2_778
10
37.2070333
20
8.6816404
11
39.687502
21
16.1230464
0
LINE
8
DEFAULT_255_2_778
10
39.687502
20
16.1230464
11
34.7265646
21
16.1230464
0
LINE
8
DEFAULT_255_2_778
10
75.6542978
20
8.6816404
11
74.5914186
21
19.8437494
0
LINE
8
DEFAULT_255_2_778
10
74.5914186
20
19.8437494
11
73.5285394
21
8.6816404
0
LINE
8
DEFAULT_255_2_778
10
73.5285394
20
8.6816404
11
72.4656602
21
19.8437494
0
LINE
8
DEFAULT_255_2_778
10
72.4656602
20
19.8437494
11
71.4027648
21
8.6816404
0
LINE
8
DEFAULT_255_2_778
10
71.4027648
20
8.6816404
11
70.3398856
21
19.8437494
0
LINE
8
DEFAULT_255_2_778
10
70.3398856
20
19.8437494
11
69.2770064
21
8.6816404
0
LINE
8
DEFAULT_255_2_778
10
69.2770064
20
8.6816404
11
68.2141312
21
19.8437494
0
LINE
8
DEFAULT_255_2_778
10
22.3254586
20
35.9667959
11
31.007099
21
8.6816404
0
LINE
8
DEFAULT_255_2_778
10
22.3242049
20
35.9667959
11
21.7040877
21
28.5253898
0
LINE
8
DEFAULT_255_2_778
10
21.7040877
20
28.5253898
11
26.6650251
21
29.7656242
0
LINE
8
DEFAULT_255_2_778
10
26.6650251
20
29.7656242
11
22.3242049
21
35.9667959
0
LINE
8
DEFAULT_255_2_778
10
22.3242181
20
8.6816272
11
22.3242181
21
17.3632675
0
LINE
8
DEFAULT_255_2_778
10
19.8437494
20
17.3632808
11
24.8046868
21
17.3632808
0
LINE
8
DEFAULT_255_2_778
10
47.1289049
20
50.849608
11
47.1289049
21
-6.2011717
0
LINE
8
DEFAULT_255_2_778
10
49.6093604
20
16.1230464
11
47.1288917
21
8.6816404
0
LINE
8
DEFAULT_255_2_778
10
47.1288917
20
8.6816404
11
44.648423
21
16.1230464
0
LINE
8
DEFAULT_255_2_778
10
44.648423
20
16.1230464
11
49.6093604
21
16.1230464
0
LINE
8
DEFAULT_255_2_778
10
63.2519381
20
50.849608
11
63.2519381
21
35.9667959
0
LINE
8
DEFAULT_255_2_778
10
63.2519381
20
35.9667959
11
54.5702978
21
8.6816404
0
LINE
8
DEFAULT_255_2_778
10
54.5702978
20
8.6816404
11
54.5702978
21
-6.2011717
0
LINE
8
DEFAULT_255_2_778
10
63.2519381
20
35.9667959
11
63.8720553
21
28.5253898
0
LINE
8
DEFAULT_255_2_778
10
63.8720553
20
28.5253898
11
58.9111179
21
29.7656242
0
LINE
8
DEFAULT_255_2_778
10
58.9111179
20
29.7656242
11
63.2519381
21
35.9667959
0
LINE
8
DEFAULT_255_2_778
10
62.011717
20
-6.2011849
11
62.011717
21
17.3632675
0
LINE
8
DEFAULT_255_2_778
10
64.4921857
20
17.3632808
11
59.5312483
21
17.3632808
0
LINE
8
DEFAULT_4_2_778
10
44.6484363
20
50.849608
11
49.6093736
21
50.849608
0
LINE
8
DEFAULT_4_2_778
10
47.1289049
20
53.3300766
11
47.1289049
21
50.849608
0
LINE
8
DEFAULT_4_2_778
10
60.7714827
20
50.849608
11
65.73242
21
50.849608
0
LINE
8
DEFAULT_4_2_778
10
63.2519514
20
53.3300766
11
63.2519514
21
50.849608
0
LINE
8
DEFAULT_4_2_778
10
44.6484363
20
-6.2011717
11
49.6093736
21
-6.2011717
0
LINE
8
DEFAULT_4_2_778
10
47.1289049
20
-8.6816404
11
47.1289049
21
-6.2011717
0
LINE
8
DEFAULT_4_2_778
10
52.0898423
20
-6.2011717
11
57.0507797
21
-6.2011717
0
LINE
8
DEFAULT_4_2_778
10
54.570311
20
-8.6816404
11
54.570311
21
-6.2011717
0
LINE
8
DEFAULT_4_2_778
10
59.5312483
20
-6.2011717
11
64.4921857
21
-6.2011717
0
LINE
8
DEFAULT_4_2_778
10
62.011717
20
-8.6816404
11
62.011717
21
-6.2011717
0
LINE
8
DEFAULT_255_2_778
10
14.8828121
20
13.6425777
11
17.3632808
21
13.6425777
0
LINE
8
DEFAULT_255_2_778
10
9.9218747
20
8.6816404
11
14.8828121
21
13.6425777
0
LINE
8
DEFAULT_255_2_778
10
14.8828121
20
13.6425777
11
9.9218747
21
18.6035151
0
LINE
8
DEFAULT_255_2_778
10
9.9218747
20
18.6035151
11
9.9218747
21
8.6816404
0
LINE
8
DEFAULT_255_2_778
10
6.2011585
20
13.6425786
11
9.9218615
21
13.6338986
0
LINE
8
DEFAULT_4_2_778
10
6.2011717
20
11.1621091
11
6.2011717
21
16.1230464
0
LINE
8
DEFAULT_4_2_778
10
3.720703
20
13.6425777
11
6.2011717
21
13.6425777
0
ENDSEC
0
EOF