0
SECTION
2
HEADER
0
ENDSEC
0
SECTION
2
TABLES
0
TABLE
2
LTYPE
0
LTYPE
72
65
70
64
2
CONTINUOUS
3
______
73
0
40
0
0
ENDTAB
0
TABLE
2
LAYER
0
LAYER
2
DEFAULT_255_2_778
70
0
62
255
6
CONTINUOUS
0
LAYER
2
DEFAULT_4_2_778
70
0
62
4
6
CONTINUOUS
0
ENDTAB
0
ENDSEC
0
SECTION
2
ENTITIES
0
LINE
8
DEFAULT_255_2_778
10
34.1064576
20
-6.2011717
11
34.1064576
21
16.1230464
0
LINE
8
DEFAULT_255_2_778
10
32.86621
20
16.1230464
11
35.3466787
21
16.1230464
0
LINE
8
DEFAULT_255_2_778
10
44.0283191
20
-6.2011717
11
44.0283191
21
16.1230464
0
LINE
8
DEFAULT_255_2_778
10
42.788098
20
16.1230464
11
45.2685667
21
16.1230464
0
LINE
8
DEFAULT_255_2_778
10
30.3857546
20
35.9667959
11
47.7490353
21
35.9667959
0
LINE
8
DEFAULT_255_2_778
10
47.7490353
20
35.9667959
11
47.7490353
21
8.6816404
0
LINE
8
DEFAULT_255_2_778
10
47.7490353
20
8.6816404
11
30.3857546
21
8.6816404
0
LINE
8
DEFAULT_255_2_778
10
30.3857546
20
8.6816404
11
30.3857546
21
35.9667959
0
LINE
8
DEFAULT_255_2_778
10
39.067395
20
-6.2011717
11
39.067395
21
16.1230464
0
LINE
8
DEFAULT_255_2_778
10
34.1064576
20
50.849608
11
34.1064576
21
28.5253898
0
LINE
8
DEFAULT_255_2_778
10
32.8662233
20
28.5253898
11
35.3466919
21
28.5253898
0
LINE
8
DEFAULT_255_2_778
10
44.0283323
20
50.849608
11
44.0283323
21
28.5253898
0
LINE
8
DEFAULT_255_2_778
10
42.788098
20
28.5253898
11
45.2685667
21
28.5253898
0
LINE
8
DEFAULT_4_2_778
10
31.6259889
20
50.849608
11
36.5869263
21
50.849608
0
LINE
8
DEFAULT_4_2_778
10
34.1064576
20
53.3300766
11
34.1064576
21
50.849608
0
LINE
8
DEFAULT_4_2_778
10
41.5478636
20
50.849608
11
46.508801
21
50.849608
0
LINE
8
DEFAULT_4_2_778
10
44.0283323
20
53.3300766
11
44.0283323
21
50.849608
0
LINE
8
DEFAULT_4_2_778
10
31.6259889
20
-6.2011717
11
36.5869263
21
-6.2011717
0
LINE
8
DEFAULT_4_2_778
10
34.1064576
20
-8.6816404
11
34.1064576
21
-6.2011717
0
LINE
8
DEFAULT_4_2_778
10
36.5869263
20
-6.2011717
11
41.5478636
21
-6.2011717
0
LINE
8
DEFAULT_4_2_778
10
39.067395
20
-8.6816404
11
39.067395
21
-6.2011717
0
LINE
8
DEFAULT_4_2_778
10
41.5478636
20
-6.2011717
11
46.508801
21
-6.2011717
0
LINE
8
DEFAULT_4_2_778
10
44.0283323
20
-8.6816404
11
44.0283323
21
-6.2011717
0
LINE
8
DEFAULT_255_2_778
10
37.8271474
20
16.1230464
11
40.3076161
21
16.1230464
0
LINE
8
DEFAULT_255_2_778
10
11.7822262
20
35.9667959
11
30.3857413
21
35.9667959
0
LINE
8
DEFAULT_255_2_778
10
30.3857413
20
35.9667959
11
30.3857413
21
8.6816404
0
LINE
8
DEFAULT_255_2_778
10
30.3857413
20
8.6816404
11
11.7822262
21
8.6816404
0
LINE
8
DEFAULT_255_2_778
10
11.7822262
20
8.6816404
11
11.7822262
21
35.9667959
0
LINE
8
DEFAULT_255_2_778
10
16.1230398
20
35.9667826
11
15.5029226
21
29.7656109
0
LINE
8
DEFAULT_255_2_778
10
15.5029226
20
29.7656109
11
18.6035085
21
30.3857281
0
LINE
8
DEFAULT_255_2_778
10
18.6035085
20
30.3857281
11
16.1230398
21
35.9667826
0
LINE
8
DEFAULT_255_2_778
10
23.5644657
20
14.8827989
11
25.4248172
21
8.6816272
0
LINE
8
DEFAULT_255_2_778
10
25.4248172
20
8.6816272
11
27.2851687
21
14.8827989
0
LINE
8
DEFAULT_255_2_778
10
27.2851687
20
14.8827989
11
23.5644657
21
14.8827989
0
LINE
8
DEFAULT_255_2_778
10
25.4248172
20
35.9667959
11
25.4248172
21
8.6816404
0
LINE
8
DEFAULT_255_2_778
10
15.5029425
20
8.6816404
11
15.5029425
21
16.1230464
0
LINE
8
DEFAULT_255_2_778
10
14.2627081
20
16.1230464
11
16.7431768
21
16.1230464
0
LINE
8
DEFAULT_255_2_778
10
20.4638798
20
8.6816404
11
16.1230597
21
35.9667959
0
LINE
8
DEFAULT_255_2_778
10
47.7490353
20
35.9667959
11
66.3525504
21
35.9667959
0
LINE
8
DEFAULT_255_2_778
10
66.3525504
20
35.9667959
11
66.3525504
21
8.6816404
0
LINE
8
DEFAULT_255_2_778
10
66.3525504
20
8.6816404
11
47.7490353
21
8.6816404
0
LINE
8
DEFAULT_255_2_778
10
47.7490353
20
8.6816404
11
47.7490353
21
35.9667959
0
LINE
8
DEFAULT_255_2_778
10
62.0117236
20
35.9667826
11
62.6318408
21
29.7656109
0
LINE
8
DEFAULT_255_2_778
10
62.6318408
20
29.7656109
11
59.531255
21
30.3857281
0
LINE
8
DEFAULT_255_2_778
10
59.531255
20
30.3857281
11
62.0117236
21
35.9667826
0
LINE
8
DEFAULT_255_2_778
10
54.5703242
20
14.8827989
11
52.7099727
21
8.6816272
0
LINE
8
DEFAULT_255_2_778
10
52.7099727
20
8.6816272
11
50.8496212
21
14.8827989
0
LINE
8
DEFAULT_255_2_778
10
50.8496212
20
14.8827989
11
54.5703242
21
14.8827989
0
LINE
8
DEFAULT_255_2_778
10
52.7099727
20
35.9667959
11
52.7099727
21
8.6816404
0
LINE
8
DEFAULT_255_2_778
10
62.6318474
20
8.6816404
11
62.6318474
21
16.1230464
0
LINE
8
DEFAULT_255_2_778
10
63.8720685
20
16.1230464
11
61.3915999
21
16.1230464
0
LINE
8
DEFAULT_255_2_778
10
57.6708968
20
8.6816404
11
62.011717
21
35.9667959
0
LINE
8
DEFAULT_255_2_778
10
11.7822262
20
11.1621091
11
5.5810545
21
11.1621091
0
LINE
8
DEFAULT_255_2_778
10
11.7822262
20
16.1230464
11
5.5810545
21
16.1230464
0
LINE
8
DEFAULT_255_2_778
10
5.5810678
20
8.6816404
11
5.5810678
21
18.6035151
0
ARC
8
0
10
5.5781687
20
19.8466399
40
1.2373387
50
147.4065307
51
180.1338448
0
ARC
8
0
10
5.5777046
20
19.8471259
40
1.2366858
50
96.4511543
51
147.4139177
0
ARC
8
0
10
5.5807827
20
19.8197248
40
1.264259
50
89.9870789
51
96.4502438
0
ARC
8
0
10
5.5839584
20
19.8466503
40
1.2373368
50
57.4064547
51
90.1338528
0
ARC
8
0
10
5.5844431
20
19.8471123
40
1.2366867
50
6.4511526
51
57.4138476
0
ARC
8
0
10
5.5570509
20
19.8440347
40
1.2642513
50
359.9870722
51
6.4502645
0
ARC
8
0
10
5.5839668
20
19.840859
40
1.2373387
50
327.4065307
51
0.1338448
0
ARC
8
0
10
5.584431
20
19.840373
40
1.2366858
50
276.4511543
51
327.4139177
0
ARC
8
0
10
5.5813529
20
19.8677741
40
1.264259
50
269.9870789
51
276.4502438
0
ARC
8
0
10
5.5781771
20
19.8408485
40
1.2373368
50
237.4064547
51
270.1338528
0
ARC
8
0
10
5.5776924
20
19.8403866
40
1.2366867
50
186.4511526
51
237.4138476
0
ARC
8
0
10
5.6050846
20
19.8434642
40
1.2642513
50
179.9870722
51
186.4502645
0
LINE
8
DEFAULT_255_2_778
10
4.3408334
20
19.8437494
11
4.3408334
21
19.8437494
0
LINE
8
DEFAULT_255_2_778
10
66.3525372
20
16.1230464
11
67.5927716
21
16.1230464
0
LINE
8
DEFAULT_255_2_778
10
67.5927716
20
16.1230464
11
68.8330059
21
13.6425777
0
LINE
8
DEFAULT_255_2_778
10
68.8330059
20
13.6425777
11
70.0732402
21
16.1230464
0
LINE
8
DEFAULT_255_2_778
10
70.0732402
20
16.1230464
11
71.3134746
21
16.1230464
0
LINE
8
DEFAULT_255_2_778
10
71.3134746
20
16.1230464
11
72.5537089
21
13.6425777
0
LINE
8
DEFAULT_255_2_778
10
72.5537089
20
13.6425777
11
73.7939433
21
16.1230464
0
LINE
8
DEFAULT_255_2_778
10
73.7939433
20
16.1230464
11
75.0341776
21
16.1230464
0
LINE
8
DEFAULT_255_2_778
10
75.0341776
20
16.1230464
11
75.0341776
21
8.6816404
0
LINE
8
DEFAULT_255_2_778
10
75.0341776
20
8.6816404
11
66.3525372
21
8.6816404
0
LINE
8
DEFAULT_255_2_778
10
70.0732402
20
18.6035151
11
70.0732402
21
21.0839838
0
ENDSEC
0
EOF