0
SECTION
2
HEADER
0
ENDSEC
0
SECTION
2
TABLES
0
TABLE
2
LTYPE
0
LTYPE
72
65
70
64
2
CONTINUOUS
3
______
73
0
40
0
0
ENDTAB
0
TABLE
2
LAYER
0
LAYER
2
DEFAULT_255_2_778
70
0
62
255
6
CONTINUOUS
0
LAYER
2
DEFAULT_4_2_778
70
0
62
4
6
CONTINUOUS
0
ENDTAB
0
ENDSEC
0
SECTION
2
ENTITIES
0
LINE
8
DEFAULT_255_2_778
10
68.5229539
20
8.6816404
11
43.7182671
21
8.6816404
0
LINE
8
DEFAULT_255_2_778
10
43.7182671
20
8.6816404
11
43.7182671
21
35.9667959
0
LINE
8
DEFAULT_255_2_778
10
43.7182671
20
35.9667959
11
68.5229539
21
35.9667959
0
LINE
8
DEFAULT_255_2_778
10
68.5229539
20
35.9667959
11
68.5229539
21
8.6816404
0
LINE
8
DEFAULT_255_2_778
10
43.7182671
20
8.6816404
11
18.9135803
21
8.6816404
0
LINE
8
DEFAULT_255_2_778
10
18.9135803
20
8.6816404
11
18.9135803
21
35.9667959
0
LINE
8
DEFAULT_255_2_778
10
18.9135803
20
35.9667959
11
43.7182671
21
35.9667959
0
LINE
8
DEFAULT_255_2_778
10
43.7182671
20
35.9667959
11
43.7182671
21
8.6816404
0
LINE
8
DEFAULT_255_2_778
10
38.7573298
20
35.9667959
11
38.7573298
21
8.6816404
0
LINE
8
DEFAULT_255_2_778
10
36.2768611
20
16.1230464
11
38.7573298
21
8.6816404
0
LINE
8
DEFAULT_255_2_778
10
38.7573298
20
8.6816404
11
41.2377984
21
16.1230464
0
LINE
8
DEFAULT_255_2_778
10
41.2377984
20
16.1230464
11
36.2768611
21
16.1230464
0
LINE
8
DEFAULT_255_2_778
10
23.8745177
20
35.9667959
11
32.5561581
21
8.6816404
0
LINE
8
DEFAULT_255_2_778
10
23.8745044
20
35.9667959
11
23.2543873
21
28.5253898
0
LINE
8
DEFAULT_255_2_778
10
23.2543873
20
28.5253898
11
28.2153246
21
29.7656242
0
LINE
8
DEFAULT_255_2_778
10
28.2153246
20
29.7656242
11
23.8745044
21
35.9667959
0
LINE
8
DEFAULT_255_2_778
10
23.8745177
20
8.6816272
11
23.8745177
21
17.3632675
0
LINE
8
DEFAULT_255_2_778
10
21.394049
20
17.3632808
11
26.3549864
21
17.3632808
0
LINE
8
DEFAULT_255_2_778
10
48.6792045
20
50.849608
11
48.6792045
21
-6.2011717
0
LINE
8
DEFAULT_255_2_778
10
51.1596599
20
16.1230464
11
48.6791913
21
8.6816404
0
LINE
8
DEFAULT_255_2_778
10
48.6791913
20
8.6816404
11
46.1987226
21
16.1230464
0
LINE
8
DEFAULT_255_2_778
10
46.1987226
20
16.1230464
11
51.1596599
21
16.1230464
0
LINE
8
DEFAULT_255_2_778
10
64.8022377
20
50.849608
11
64.8022377
21
35.9667959
0
LINE
8
DEFAULT_255_2_778
10
64.8022377
20
35.9667959
11
56.1205973
21
8.6816404
0
LINE
8
DEFAULT_255_2_778
10
56.1205973
20
8.6816404
11
56.1205973
21
-6.2011717
0
LINE
8
DEFAULT_255_2_778
10
64.8022377
20
35.9667959
11
65.4223548
21
28.5253898
0
LINE
8
DEFAULT_255_2_778
10
65.4223548
20
28.5253898
11
60.4614175
21
29.7656242
0
LINE
8
DEFAULT_255_2_778
10
60.4614175
20
29.7656242
11
64.8022377
21
35.9667959
0
LINE
8
DEFAULT_255_2_778
10
63.5620166
20
-6.2011849
11
63.5620166
21
17.3632675
0
LINE
8
DEFAULT_255_2_778
10
66.0424852
20
17.3632808
11
61.0815479
21
17.3632808
0
LINE
8
DEFAULT_4_2_778
10
46.1987358
20
50.849608
11
51.1596732
21
50.849608
0
LINE
8
DEFAULT_4_2_778
10
48.6792045
20
53.3300766
11
48.6792045
21
50.849608
0
LINE
8
DEFAULT_4_2_778
10
62.3217822
20
50.849608
11
67.2827196
21
50.849608
0
LINE
8
DEFAULT_4_2_778
10
64.8022509
20
53.3300766
11
64.8022509
21
50.849608
0
LINE
8
DEFAULT_4_2_778
10
46.1987358
20
-6.2011717
11
51.1596732
21
-6.2011717
0
LINE
8
DEFAULT_4_2_778
10
48.6792045
20
-8.6816404
11
48.6792045
21
-6.2011717
0
LINE
8
DEFAULT_4_2_778
10
53.6401418
20
-6.2011717
11
58.6010792
21
-6.2011717
0
LINE
8
DEFAULT_4_2_778
10
56.1206105
20
-8.6816404
11
56.1206105
21
-6.2011717
0
LINE
8
DEFAULT_4_2_778
10
61.0815479
20
-6.2011717
11
66.0424852
21
-6.2011717
0
LINE
8
DEFAULT_4_2_778
10
63.5620166
20
-8.6816404
11
63.5620166
21
-6.2011717
0
LINE
8
DEFAULT_255_2_778
10
15.1928707
20
13.6425777
11
18.9135737
21
13.6425777
0
LINE
8
DEFAULT_255_2_778
10
13.3325192
20
11.1621091
11
18.9135737
21
11.1621091
0
LINE
8
DEFAULT_255_2_778
10
13.9526363
20
17.3632675
11
16.433105
21
14.8827989
0
LINE
8
DEFAULT_255_2_778
10
16.433105
20
14.8827989
11
10.8520505
21
8.6816272
0
ENDSEC
0
EOF