0
SECTION
2
HEADER
0
ENDSEC
0
SECTION
2
TABLES
0
TABLE
2
LTYPE
0
LTYPE
72
65
70
64
2
CONTINUOUS
3
______
73
0
40
0
0
ENDTAB
0
TABLE
2
LAYER
0
LAYER
2
DEFAULT_255_2_778
70
0
62
255
6
CONTINUOUS
0
LAYER
2
DEFAULT_4_2_778
70
0
62
4
6
CONTINUOUS
0
ENDTAB
0
ENDSEC
0
SECTION
2
ENTITIES
0
ARC
8
0
10
39.6950359
20
4.9645431
40
2.4880083
50
159.6501978
51
180.0830351
0
ARC
8
0
10
39.6818903
20
4.9661349
40
2.4751317
50
100.6656187
51
159.5789257
0
ARC
8
0
10
39.6861412
20
4.9286038
40
2.5128025
50
89.9690414
51
100.6024869
0
ARC
8
0
10
39.6911048
20
4.9534013
40
2.4880074
50
69.650233
51
90.0830386
0
ARC
8
0
10
39.6926973
20
4.9665464
40
2.4751309
50
10.6656383
51
69.5789809
0
ARC
8
0
10
39.6551793
20
4.9622964
40
2.5127887
50
359.9690127
51
10.6025423
0
ARC
8
0
10
39.6799619
20
4.9573317
40
2.4880083
50
339.6501978
51
0.0830351
0
ARC
8
0
10
39.6931075
20
4.9557398
40
2.4751317
50
280.6656187
51
339.5789257
0
ARC
8
0
10
39.6888566
20
4.9932709
40
2.5128025
50
269.9690414
51
280.6024869
0
ARC
8
0
10
39.683893
20
4.9684734
40
2.4880074
50
249.650233
51
270.0830386
0
ARC
8
0
10
39.6823005
20
4.9553284
40
2.4751309
50
190.6656383
51
249.5789809
0
ARC
8
0
10
39.7198185
20
4.9595784
40
2.5127887
50
179.9690127
51
190.6025423
0
LINE
8
DEFAULT_255_2_778
10
37.2070302
20
4.9609374
11
37.2070302
21
4.9609374
0
LINE
8
DEFAULT_255_2_778
10
29.7656242
20
24.8046868
11
29.7656242
21
4.9609374
0
LINE
8
DEFAULT_255_2_778
10
29.7656242
20
4.9609374
11
49.6093736
21
4.9609374
0
LINE
8
DEFAULT_255_2_778
10
49.6093736
20
4.9609374
11
49.6093736
21
24.8046868
0
LINE
8
DEFAULT_255_2_778
10
39.6874989
20
4.9609374
11
39.6874989
21
-14.8828121
0
LINE
8
DEFAULT_4_2_778
10
27.2851555
20
24.8046868
11
32.2460929
21
24.8046868
0
LINE
8
DEFAULT_4_2_778
10
29.7656242
20
27.2851555
11
29.7656242
21
24.8046868
0
LINE
8
DEFAULT_4_2_778
10
37.2070302
20
-14.8828121
11
42.1679676
21
-14.8828121
0
LINE
8
DEFAULT_4_2_778
10
39.6874989
20
-14.8828121
11
39.6874989
21
-17.3632808
0
LINE
8
DEFAULT_4_2_778
10
47.1289049
20
24.8046868
11
52.0898423
21
24.8046868
0
LINE
8
DEFAULT_4_2_778
10
49.6093736
20
27.2851555
11
49.6093736
21
24.8046868
0
ENDSEC
0
EOF