0
SECTION
2
HEADER
0
ENDSEC
0
SECTION
2
TABLES
0
TABLE
2
LTYPE
0
LTYPE
72
65
70
64
2
CONTINUOUS
3
______
73
0
40
0
0
ENDTAB
0
TABLE
2
LAYER
0
LAYER
2
DEFAULT_255_2_778
70
0
62
255
6
CONTINUOUS
0
LAYER
2
DEFAULT_4_2_778
70
0
62
4
6
CONTINUOUS
0
ENDTAB
0
ENDSEC
0
SECTION
2
ENTITIES
0
LINE
8
DEFAULT_255_2_778
10
37.2070302
20
42.7880781
11
37.2070302
21
13.6425711
0
LINE
8
DEFAULT_255_2_778
10
26.0449212
20
42.1679676
11
53.3300766
21
14.8828121
0
LINE
8
DEFAULT_255_2_778
10
53.3300766
20
14.8828121
11
49.2373033
21
24.4326165
0
LINE
8
DEFAULT_255_2_778
10
49.2373033
20
24.4326165
11
43.7802722
21
18.9755854
0
LINE
8
DEFAULT_255_2_778
10
43.7802722
20
18.9755854
11
53.3300766
21
14.8828121
0
LINE
8
DEFAULT_4_2_778
10
34.7265615
20
43.4082019
11
39.6874989
21
43.4082019
0
LINE
8
DEFAULT_4_2_778
10
37.2070302
20
45.8886706
11
37.2070302
21
43.4082019
0
ARC
8
0
10
45.8846817
20
38.2310535
40
2.6966827
50
89.9152497
51
104.4200734
0
ARC
8
0
10
45.9366881
20
38.0775815
40
2.8582967
50
104.6636043
51
121.686371
0
ARC
8
0
10
46.2703084
20
37.5208152
40
3.5073203
50
121.5464905
51
130.4428435
0
ARC
8
0
10
46.761559
20
36.9391137
40
4.2686965
50
130.3961951
51
136.7506671
0
ARC
8
0
10
47.4114363
20
36.3257534
40
5.1623125
50
136.7342475
51
141.9548672
0
ARC
8
0
10
48.2655034
20
35.6565774
40
6.2473132
50
141.9489332
51
146.5448186
0
ARC
8
0
10
49.3572417
20
34.9339638
40
7.5565351
50
146.5370046
51
150.5503577
0
ARC
8
0
10
50.6413502
20
34.2063891
40
9.03244
50
150.5362707
51
153.8364784
0
ARC
8
0
10
52.1289611
20
33.4752944
40
10.6899939
50
153.8351538
51
156.9098472
0
ARC
8
0
10
53.890722
20
32.7234315
40
12.605483
50
156.9066439
51
159.7189426
0
ARC
8
0
10
55.8863967
20
31.9848164
40
14.733456
50
159.7147747
51
162.2555623
0
ARC
8
0
10
58.0487526
20
31.2914677
40
17.0042518
50
162.2510548
51
164.5287276
0
ARC
8
0
10
60.3799828
20
30.6458249
40
19.423237
50
164.5276073
51
166.7084098
0
ARC
8
0
10
62.8454125
20
30.0623183
40
21.9567767
50
166.7056525
51
168.7308275
0
ARC
8
0
10
65.4110367
20
29.5510929
40
24.5728385
50
168.730831
51
170.7663181
0
ARC
8
0
10
67.958517
20
29.1355769
40
27.1539831
50
170.7634498
51
172.6749675
0
ARC
8
0
10
70.3306923
20
28.8301406
40
29.545741
50
172.6740055
51
174.6167849
0
ARC
8
0
10
72.7001782
20
28.6099891
40
31.9254304
50
174.6223783
51
177.284162
0
ARC
8
0
10
74.3389406
20
28.5280072
40
33.5662369
50
177.2769228
51
180.0044677
0
ARC
8
0
10
74.1195586
20
28.5187876
40
33.3468553
50
179.9886561
51
183.7199175
0
ARC
8
0
10
71.9262724
20
28.3792662
40
31.1491381
50
183.7255668
51
186.0389872
0
ARC
8
0
10
69.626661
20
28.1380876
40
28.8369151
50
186.0431413
51
187.8520552
0
ARC
8
0
10
67.3516966
20
27.8238951
40
26.540357
50
187.8510819
51
189.6566476
0
ARC
8
0
10
65.009885
20
27.4251404
40
24.1648387
50
189.6559813
51
191.4725437
0
ARC
8
0
10
62.7126478
20
26.9587335
40
21.8207326
50
191.4720935
51
193.3106817
0
ARC
8
0
10
60.5347058
20
26.4433687
40
19.5826458
50
193.3104186
51
195.1794817
0
ARC
8
0
10
58.2825679
20
25.8290788
40
17.2482365
50
195.1690189
51
197.5749068
0
ARC
8
0
10
56.0546836
20
25.1234647
40
14.9112814
50
197.5750486
51
200.0485088
0
ARC
8
0
10
54.0525381
20
24.391396
40
12.779496
50
200.0424983
51
202.8543193
0
ARC
8
0
10
52.2495162
20
23.6306269
40
10.8225452
50
202.8502395
51
205.9540824
0
ARC
8
0
10
50.7355301
20
22.8938039
40
9.1387811
50
205.9546235
51
209.2152136
0
ARC
8
0
10
49.4463282
20
22.1708851
40
7.6607251
50
209.2024264
51
213.1270495
0
ARC
8
0
10
48.3386248
20
21.44662
40
6.3372579
50
213.1163215
51
217.7079161
0
ARC
8
0
10
47.4404454
20
20.7504832
40
5.2008907
50
217.6926929
51
223.209435
0
ARC
8
0
10
46.7463287
20
20.096374
40
4.2471328
50
223.1890307
51
230.0086622
0
ARC
8
0
10
46.2498253
20
19.5014849
40
3.4722752
50
229.976873
51
238.9483742
0
ARC
8
0
10
45.8948378
20
18.8763083
40
2.7536395
50
238.5664805
51
266.8741947
0
ARC
8
0
10
45.8883676
20
18.9004272
40
2.7773808
50
267.0346048
51
270.0062504
0
ARC
8
0
10
28.5293787
20
38.2310535
40
2.6966827
50
75.5799266
51
90.0847503
0
ARC
8
0
10
28.4773724
20
38.0775815
40
2.8582967
50
58.313629
51
75.3363957
0
ARC
8
0
10
28.143752
20
37.5208152
40
3.5073203
50
49.5571565
51
58.4535095
0
ARC
8
0
10
27.6525014
20
36.9391137
40
4.2686965
50
43.2493329
51
49.6038049
0
ARC
8
0
10
27.0026241
20
36.3257534
40
5.1623125
50
38.0451328
51
43.2657525
0
ARC
8
0
10
26.1485571
20
35.6565774
40
6.2473132
50
33.4551814
51
38.0510668
0
ARC
8
0
10
25.0568187
20
34.9339638
40
7.5565351
50
29.4496423
51
33.4629954
0
ARC
8
0
10
23.7727102
20
34.2063891
40
9.03244
50
26.1635216
51
29.4637293
0
ARC
8
0
10
22.2850993
20
33.4752944
40
10.6899939
50
23.0901528
51
26.1648462
0
ARC
8
0
10
20.5233385
20
32.7234315
40
12.605483
50
20.2810574
51
23.0933561
0
ARC
8
0
10
18.5276637
20
31.9848164
40
14.733456
50
17.7444377
51
20.2852253
0
ARC
8
0
10
16.3653079
20
31.2914677
40
17.0042518
50
15.4712724
51
17.7489452
0
ARC
8
0
10
14.0340776
20
30.6458249
40
19.423237
50
13.2915902
51
15.4723927
0
ARC
8
0
10
11.5686479
20
30.0623183
40
21.9567767
50
11.2691725
51
13.2943475
0
ARC
8
0
10
9.0030237
20
29.5510929
40
24.5728385
50
9.2336819
51
11.269169
0
ARC
8
0
10
6.4555434
20
29.1355769
40
27.1539831
50
7.3250325
51
9.2365502
0
ARC
8
0
10
4.0833682
20
28.8301406
40
29.545741
50
5.3832151
51
7.3259945
0
ARC
8
0
10
1.7138822
20
28.6099891
40
31.9254304
50
2.715838
51
5.3776217
0
ARC
8
0
10
0.0751199
20
28.5280072
40
33.5662369
50
359.9955323
51
2.7230772
0
ARC
8
0
10
0.2945018
20
28.5187876
40
33.3468553
50
356.2800825
51
0.0113439
0
ARC
8
0
10
2.487788
20
28.3792662
40
31.1491381
50
353.9610128
51
356.2744332
0
ARC
8
0
10
4.7873994
20
28.1380876
40
28.8369151
50
352.1479448
51
353.9568587
0
ARC
8
0
10
7.0623638
20
27.8238951
40
26.540357
50
350.3433524
51
352.1489181
0
ARC
8
0
10
9.4041754
20
27.4251404
40
24.1648387
50
348.5274563
51
350.3440187
0
ARC
8
0
10
11.7014126
20
26.9587335
40
21.8207326
50
346.6893183
51
348.5279065
0
ARC
8
0
10
13.8793546
20
26.4433687
40
19.5826458
50
344.8205183
51
346.6895814
0
ARC
8
0
10
16.1314925
20
25.8290788
40
17.2482365
50
342.4250932
51
344.8309811
0
ARC
8
0
10
18.3593769
20
25.1234647
40
14.9112814
50
339.9514912
51
342.4249514
0
ARC
8
0
10
20.3615223
20
24.391396
40
12.779496
50
337.1456807
51
339.9575017
0
ARC
8
0
10
22.1645442
20
23.6306269
40
10.8225452
50
334.0459176
51
337.1497605
0
ARC
8
0
10
23.6785304
20
22.8938039
40
9.1387811
50
330.7847864
51
334.0453765
0
ARC
8
0
10
24.9677322
20
22.1708851
40
7.6607251
50
326.8729505
51
330.7975736
0
ARC
8
0
10
26.0754356
20
21.44662
40
6.3372579
50
322.2920839
51
326.8836785
0
ARC
8
0
10
26.9736151
20
20.7504832
40
5.2008907
50
316.790565
51
322.3073071
0
ARC
8
0
10
27.6677317
20
20.096374
40
4.2471328
50
309.9913378
51
316.8109693
0
ARC
8
0
10
28.1642351
20
19.5014849
40
3.4722752
50
301.0516258
51
310.023127
0
ARC
8
0
10
28.5192226
20
18.8763083
40
2.7536395
50
273.1258053
51
301.4335195
0
ARC
8
0
10
28.5256928
20
18.9004272
40
2.7773808
50
269.9937496
51
272.9653952
0
LINE
8
DEFAULT_255_2_778
10
42.1679676
20
-4.9609374
11
37.2070302
21
-11.1621091
0
LINE
8
DEFAULT_255_2_778
10
37.2070302
20
-11.1621091
11
32.2460929
21
-4.9609374
0
LINE
8
DEFAULT_255_2_778
10
32.2460929
20
-4.9609374
11
42.1679676
21
-4.9609374
0
LINE
8
DEFAULT_255_2_778
10
42.1679676
20
-4.9609374
11
42.1679676
21
-4.9609374
0
LINE
8
DEFAULT_255_2_778
10
32.2460929
20
13.6425645
11
42.1679676
21
13.6425645
0
LINE
8
DEFAULT_255_2_778
10
42.1679676
20
13.6425645
11
42.1679676
21
-4.9609506
0
LINE
8
DEFAULT_255_2_778
10
42.1679676
20
-4.9609506
11
32.2460929
21
-4.9609506
0
LINE
8
DEFAULT_255_2_778
10
32.2460929
20
-4.9609506
11
32.2460929
21
13.6425645
0
LINE
8
DEFAULT_255_2_778
10
32.2460929
20
0
11
37.2070302
21
0
0
LINE
8
DEFAULT_255_2_778
10
32.2460929
20
9.9218747
11
37.2070302
21
9.9218747
0
LINE
8
DEFAULT_255_2_778
10
42.1679676
20
4.9609374
11
37.2070302
21
4.9609374
0
ENDSEC
0
EOF