0
SECTION
2
HEADER
0
ENDSEC
0
SECTION
2
TABLES
0
TABLE
2
LTYPE
0
LTYPE
72
65
70
64
2
CONTINUOUS
3
______
73
0
40
0
0
ENDTAB
0
TABLE
2
LAYER
0
LAYER
2
DEFAULT_255_2_778
70
0
62
255
6
CONTINUOUS
0
LAYER
2
DEFAULT_4_2_778
70
0
62
4
6
CONTINUOUS
0
ENDTAB
0
ENDSEC
0
SECTION
2
ENTITIES
0
ARC
8
0
10
28.57908
20
-22.3457454
40
5.0146737
50
154.6878574
51
179.7540366
0
ARC
8
0
10
29.6785383
20
-22.8290417
40
6.2152967
50
145.3279435
51
154.9937006
0
ARC
8
0
10
30.7328159
20
-23.5525844
40
7.4939666
50
137.9846285
51
145.3638676
0
ARC
8
0
10
31.8366295
20
-24.5419564
40
8.976279
50
132.0233944
51
138.008542
0
ARC
8
0
10
32.9807379
20
-25.8096883
40
10.6839461
50
126.6561991
51
132.0301663
0
ARC
8
0
10
34.1404547
20
-27.3639596
40
12.6231981
50
121.9399234
51
126.6672904
0
ARC
8
0
10
35.2500924
20
-29.1395712
40
14.7170194
50
117.7176287
51
121.9488417
0
ARC
8
0
10
36.2564924
20
-31.0489559
40
16.8753947
50
113.9895483
51
117.7272501
0
ARC
8
0
10
37.1429563
20
-33.0375305
40
19.0526053
50
110.4777271
51
113.9937465
0
ARC
8
0
10
37.9247192
20
-35.1298508
40
21.2862028
50
106.9821696
51
110.4787442
0
ARC
8
0
10
38.5729495
20
-37.2473302
40
23.5006824
50
103.6210645
51
106.9858359
0
ARC
8
0
10
39.0509788
20
-39.2102165
40
25.5209372
50
100.502957
51
103.6262862
0
ARC
8
0
10
39.3854659
20
-41.0143397
40
27.3558057
50
97.1822486
51
100.5029907
0
ARC
8
0
10
39.5858139
20
-42.5880229
40
28.9421899
50
94.0115755
51
97.1862572
0
ARC
8
0
10
39.676006
20
-43.8682013
40
30.2255415
50
90.5536119
51
94.0123572
0
ARC
8
0
10
39.6873826
20
-44.4754779
40
30.8329003
50
89.9997839
51
90.563848
0
ARC
8
0
10
39.6916303
20
-44.1058123
40
30.4632349
50
86.8971797
51
90.0077705
0
ARC
8
0
10
39.756507
20
-42.9456848
40
29.3012963
50
83.5837273
51
86.9010635
0
ARC
8
0
10
39.9306243
20
-41.4101542
40
27.7559261
50
80.2564119
51
83.586678
0
ARC
8
0
10
40.2431094
20
-39.5969631
40
25.9160056
50
76.941367
51
80.2588758
0
ARC
8
0
10
40.699236
20
-37.6324363
40
23.8992219
50
73.6984571
51
76.9424456
0
ARC
8
0
10
41.3085521
20
-35.5560938
40
21.7353226
50
70.2222325
51
73.7037457
0
ARC
8
0
10
42.0821285
20
-33.4086779
40
19.452821
50
66.5824805
51
70.2261136
0
ARC
8
0
10
42.9649748
20
-31.3703579
40
17.2315228
50
62.9274249
51
66.5826221
0
ARC
8
0
10
43.9554535
20
-29.438846
40
15.0608598
50
58.7318731
51
62.938402
0
ARC
8
0
10
45.0565344
20
-27.6286526
40
12.9420922
50
54.1202369
51
58.738854
0
ARC
8
0
10
46.2095566
20
-26.0384047
40
10.9778257
50
48.8623342
51
54.1317834
0
ARC
8
0
10
47.3694007
20
-24.7131109
40
9.2166787
50
42.8923007
51
48.8725479
0
ARC
8
0
10
48.5029171
20
-23.6642871
40
7.6723732
50
35.5970496
51
42.9153936
0
ARC
8
0
10
49.5771169
20
-22.899335
40
6.3536449
50
26.31358
51
35.6264954
0
ARC
8
0
10
50.5689484
20
-22.4194935
40
5.2518883
50
10.6943892
51
26.4176756
0
ARC
8
0
10
50.9887896
20
-22.3246079
40
4.8217557
50
0.0046311
51
10.5122566
0
ARC
8
0
10
50.7959213
20
-22.3026903
40
5.0146703
50
334.6878329
51
359.7540305
0
ARC
8
0
10
49.6964571
20
-21.8193913
40
6.2152999
50
325.3279258
51
334.9936802
0
ARC
8
0
10
48.6421782
20
-21.0958468
40
7.4939718
50
317.9846112
51
325.3638475
0
ARC
8
0
10
47.5383636
20
-20.1064729
40
8.9762861
50
312.0233784
51
318.0085233
0
ARC
8
0
10
46.3942545
20
-18.8387396
40
10.6839547
50
306.6561858
51
312.0301506
0
ARC
8
0
10
45.2345373
20
-17.2844669
40
12.623208
50
301.939912
51
306.6672769
0
ARC
8
0
10
44.1248995
20
-15.5088544
40
14.7170301
50
297.7176192
51
301.9488303
0
ARC
8
0
10
43.1184643
20
-13.5993992
40
16.8754842
50
293.9895531
51
297.7272359
0
ARC
8
0
10
42.2320063
20
-11.6108247
40
19.0526923
50
290.477731
51
293.9937349
0
ARC
8
0
10
41.4502747
20
-9.5185846
40
21.2862037
50
286.9821696
51
290.4787443
0
ARC
8
0
10
40.8020293
20
-7.4010528
40
23.5007379
50
283.6210707
51
286.9858339
0
ARC
8
0
10
40.3240052
20
-5.4381743
40
25.5209838
50
280.5029618
51
283.6262847
0
ARC
8
0
10
39.9895308
20
-3.6341218
40
27.3557805
50
277.1822522
51
280.502996
0
ARC
8
0
10
39.789181
20
-2.060423
40
28.9421803
50
274.0115793
51
277.1862602
0
ARC
8
0
10
39.6989917
20
-0.7802781
40
30.2254983
50
270.5536123
51
274.0123599
0
ARC
8
0
10
39.6876152
20
-0.1730264
40
30.8328322
50
269.9997839
51
270.5638488
0
ARC
8
0
10
39.6833673
20
-0.5425807
40
30.4632781
50
266.897182
51
270.0077708
0
ARC
8
0
10
39.6184889
20
-1.7027356
40
29.3013122
50
263.58373
51
266.9010664
0
ARC
8
0
10
39.4443725
20
-3.2382557
40
27.7559525
50
260.2564168
51
263.5866811
0
ARC
8
0
10
39.1318866
20
-5.0514591
40
25.9160197
50
256.9413706
51
260.2588783
0
ARC
8
0
10
38.675775
20
-7.0159322
40
23.8992917
50
253.698464
51
256.9424433
0
ARC
8
0
10
38.066442
20
-9.0923429
40
21.7353222
50
250.2222325
51
253.7037457
0
ARC
8
0
10
37.2928914
20
-11.2396968
40
19.4528876
50
246.5824837
51
250.2261039
0
ARC
8
0
10
36.4100174
20
-13.2780896
40
17.2315116
50
242.9274152
51
246.582614
0
ARC
8
0
10
35.4195036
20
-15.2096606
40
15.06078
50
238.7318573
51
242.9384073
0
ARC
8
0
10
34.3184575
20
-17.0197935
40
12.9420821
50
234.1202237
51
238.7388429
0
ARC
8
0
10
33.1654357
20
-18.6100401
40
10.977817
50
228.8623188
51
234.1317704
0
ARC
8
0
10
32.0055923
20
-19.9353324
40
9.2166715
50
222.8922828
51
228.8725327
0
ARC
8
0
10
30.8720769
20
-20.9841544
40
7.6723679
50
215.59703
51
222.9153769
0
ARC
8
0
10
29.7978783
20
-21.7491048
40
6.3536416
50
206.3135595
51
215.6264777
0
ARC
8
0
10
28.8060578
20
-22.228942
40
5.2518967
50
190.6943803
51
206.4176395
0
ARC
8
0
10
28.3862081
20
-22.3238284
40
4.8217557
50
180.004631
51
190.5122566
0
LINE
8
DEFAULT_255_2_778
10
23.5644525
20
-22.3242181
11
23.5644525
21
-22.3242181
0
LINE
8
DEFAULT_255_2_778
10
12.4023434
20
-22.3242181
11
33.4863272
21
-22.3242181
0
LINE
8
DEFAULT_255_2_778
10
33.4863272
20
-22.3242181
11
44.6484363
21
-17.3632808
0
LINE
8
DEFAULT_255_2_778
10
34.7265615
20
-27.2851555
11
45.8886706
21
-22.3242181
0
LINE
8
DEFAULT_255_2_778
10
45.8886706
20
-22.3242181
11
66.9726544
21
-22.3242181
0
LINE
8
DEFAULT_4_2_778
10
66.9726544
20
-19.8437494
11
66.9726544
21
-24.8046868
0
LINE
8
DEFAULT_4_2_778
10
66.9726544
20
-22.3242181
11
69.4531231
21
-22.3242181
0
LINE
8
DEFAULT_4_2_778
10
12.4023434
20
-19.8437494
11
12.4023434
21
-24.8046868
0
LINE
8
DEFAULT_4_2_778
10
9.9218747
20
-22.3242181
11
12.4023434
21
-22.3242181
0
ENDSEC
0
EOF