0
SECTION
2
HEADER
0
ENDSEC
0
SECTION
2
TABLES
0
TABLE
2
LTYPE
0
LTYPE
72
65
70
64
2
CONTINUOUS
3
______
73
0
40
0
0
ENDTAB
0
TABLE
2
LAYER
0
LAYER
2
DEFAULT_255_2_778
70
0
62
255
6
CONTINUOUS
0
LAYER
2
DEFAULT_4_2_778
70
0
62
4
6
CONTINUOUS
0
ENDTAB
0
ENDSEC
0
SECTION
2
ENTITIES
0
LINE
8
DEFAULT_255_2_778
10
21.0839838
20
-6.2011717
11
58.291014
21
-6.2011717
0
LINE
8
DEFAULT_255_2_778
10
58.291014
20
-6.2011717
11
58.291014
21
-28.5253898
0
LINE
8
DEFAULT_255_2_778
10
58.291014
20
-28.5253898
11
21.0839838
21
-28.5253898
0
LINE
8
DEFAULT_255_2_778
10
21.0839838
20
-28.5253898
11
21.0839838
21
-6.2011717
0
LINE
8
DEFAULT_255_2_778
10
12.4023434
20
-17.3632808
11
66.9726544
21
-17.3632808
0
LINE
8
DEFAULT_255_2_778
10
44.6484363
20
-11.1621091
11
50.849608
21
-17.3632808
0
LINE
8
DEFAULT_255_2_778
10
50.849608
20
-17.3632808
11
44.6484363
21
-23.5644525
0
LINE
8
DEFAULT_255_2_778
10
62.011717
20
-12.4023434
11
62.011717
21
-22.3242181
0
LINE
8
DEFAULT_4_2_778
10
66.9726544
20
-14.8828121
11
66.9726544
21
-19.8437494
0
LINE
8
DEFAULT_4_2_778
10
66.9726544
20
-17.3632808
11
69.4531231
21
-17.3632808
0
LINE
8
DEFAULT_4_2_778
10
12.4023434
20
-14.8828121
11
12.4023434
21
-19.8437494
0
LINE
8
DEFAULT_4_2_778
10
9.9218747
20
-17.3632808
11
12.4023434
21
-17.3632808
0
ENDSEC
0
EOF