0
SECTION
2
HEADER
0
ENDSEC
0
SECTION
2
TABLES
0
TABLE
2
LTYPE
0
LTYPE
72
65
70
64
2
CONTINUOUS
3
______
73
0
40
0
0
ENDTAB
0
TABLE
2
LAYER
0
LAYER
2
DEFAULT_255_2_778
70
0
62
255
6
CONTINUOUS
0
LAYER
2
DEFAULT_4_2_778
70
0
62
4
6
CONTINUOUS
0
ENDTAB
0
ENDSEC
0
SECTION
2
ENTITIES
0
LINE
8
DEFAULT_255_2_778
10
12.4023434
20
13.6425777
11
24.8046868
21
13.6425777
0
LINE
8
DEFAULT_255_2_778
10
66.9726544
20
13.6425777
11
52.0898423
21
13.6425777
0
LINE
8
DEFAULT_255_2_778
10
24.8046868
20
13.6425777
11
38.4472646
21
27.2851555
0
LINE
8
DEFAULT_255_2_778
10
38.4472646
20
27.2851555
11
52.0898423
21
13.6425777
0
LINE
8
DEFAULT_255_2_778
10
52.0898423
20
13.6425777
11
38.4472646
21
0
0
LINE
8
DEFAULT_255_2_778
10
38.4472646
20
0
11
24.8046868
21
13.6425777
0
LINE
8
DEFAULT_255_2_778
10
33.4863272
20
4.9609374
11
43.4082019
21
4.9609374
0
LINE
8
DEFAULT_4_2_778
10
66.9726544
20
16.1230464
11
66.9726544
21
11.1621091
0
LINE
8
DEFAULT_4_2_778
10
66.9726544
20
13.6425777
11
69.4531231
21
13.6425777
0
LINE
8
DEFAULT_4_2_778
10
12.4023434
20
16.1230464
11
12.4023434
21
11.1621091
0
LINE
8
DEFAULT_4_2_778
10
9.9218747
20
13.6425777
11
12.4023434
21
13.6425777
0
LINE
8
DEFAULT_255_2_778
10
38.4472646
20
0
11
38.4472646
21
-14.8828121
0
LINE
8
DEFAULT_4_2_778
10
35.9667959
20
-14.8828121
11
40.9277332
21
-14.8828121
0
LINE
8
DEFAULT_4_2_778
10
38.4472646
20
-17.3632808
11
38.4472646
21
-14.8828121
0
LINE
8
DEFAULT_255_2_778
10
33.4863272
20
22.3242181
11
43.4082019
21
22.3242181
0
ENDSEC
0
EOF