0
SECTION
2
HEADER
0
ENDSEC
0
SECTION
2
TABLES
0
TABLE
2
LTYPE
0
LTYPE
72
65
70
64
2
CONTINUOUS
3
______
73
0
40
0
0
ENDTAB
0
TABLE
2
LAYER
0
LAYER
2
DEFAULT_255_2_778
70
0
62
255
6
CONTINUOUS
0
LAYER
2
DEFAULT_4_2_778
70
0
62
4
6
CONTINUOUS
0
ENDTAB
0
ENDSEC
0
SECTION
2
ENTITIES
0
LINE
8
DEFAULT_255_2_778
10
27.2851555
20
23.5644525
11
49.6093736
21
23.5644525
0
LINE
8
DEFAULT_255_2_778
10
49.6093736
20
23.5644525
11
49.6093736
21
1.2402343
0
LINE
8
DEFAULT_255_2_778
10
49.6093736
20
1.2402343
11
27.2851555
21
1.2402343
0
LINE
8
DEFAULT_255_2_778
10
27.2851555
20
1.2402343
11
27.2851555
21
23.5644525
0
LINE
8
DEFAULT_255_2_778
10
42.1679676
20
19.8437494
11
42.1679676
21
4.9609374
0
LINE
8
DEFAULT_255_2_778
10
42.1679676
20
4.9609374
11
49.6093736
21
12.4023434
0
LINE
8
DEFAULT_255_2_778
10
49.6093736
20
12.4023434
11
42.1679676
21
19.8437494
0
LINE
8
DEFAULT_255_2_778
10
12.4023434
20
12.4023302
11
42.1679676
21
12.4023302
0
LINE
8
DEFAULT_255_2_778
10
38.4472646
20
12.4023302
11
38.4472646
21
-16.1230597
0
LINE
8
DEFAULT_255_2_778
10
49.6093736
20
12.4023302
11
66.9726544
21
12.4023302
0
LINE
8
DEFAULT_4_2_778
10
35.9667959
20
-16.1230464
11
40.9277332
21
-16.1230464
0
LINE
8
DEFAULT_4_2_778
10
38.4472778
20
-16.1230597
11
38.4472778
21
-18.6035283
0
LINE
8
DEFAULT_4_2_778
10
66.9726676
20
14.8827989
11
66.9726676
21
9.9218615
0
LINE
8
DEFAULT_4_2_778
10
66.9726544
20
12.4023434
11
69.4531231
21
12.4023434
0
LINE
8
DEFAULT_4_2_778
10
12.4023434
20
14.8828121
11
12.4023434
21
9.9218747
0
LINE
8
DEFAULT_4_2_778
10
9.9218747
20
12.4023434
11
12.4023434
21
12.4023434
0
ENDSEC
0
EOF