0
SECTION
2
HEADER
0
ENDSEC
0
SECTION
2
TABLES
0
TABLE
2
LTYPE
0
LTYPE
72
65
70
64
2
CONTINUOUS
3
______
73
0
40
0
0
ENDTAB
0
TABLE
2
LAYER
0
LAYER
2
DEFAULT_255_2_778
70
0
62
255
6
CONTINUOUS
0
LAYER
2
DEFAULT_4_2_778
70
0
62
4
6
CONTINUOUS
0
ENDTAB
0
ENDSEC
0
SECTION
2
ENTITIES
0
ARC
8
0
10
38.7172399
20
20.4680217
40
15.152788
50
172.8103156
51
180.0157613
0
ARC
8
0
10
38.4404117
20
20.5021012
40
14.8738714
50
164.2299962
51
172.8070997
0
ARC
8
0
10
38.3522296
20
20.5253485
40
14.7826903
50
153.4234623
51
164.22382
0
ARC
8
0
10
38.433231
20
20.478473
40
14.8761059
50
119.7188218
51
153.4015737
0
ARC
8
0
10
38.3875121
20
20.5543145
40
14.7875752
50
108.0244014
51
119.7106563
0
ARC
8
0
10
38.40076
20
20.5077448
40
14.8359588
50
99.0436125
51
108.0174035
0
ARC
8
0
10
38.4364803
20
20.2777066
40
15.0687521
50
91.6851835
51
99.0402568
0
ARC
8
0
10
38.4469934
20
20.040399
40
15.3062666
50
89.9989851
51
91.6983971
0
ARC
8
0
10
38.4514329
20
20.1938524
40
15.1528136
50
82.8103218
51
90.0157614
0
ARC
8
0
10
38.4855157
20
20.470704
40
14.8738734
50
74.2300003
51
82.8071074
0
ARC
8
0
10
38.5087616
20
20.5588808
40
14.7826978
50
63.4234699
51
74.2238246
0
ARC
8
0
10
38.4618939
20
20.4778974
40
14.8760937
50
29.7188021
51
63.4015769
0
ARC
8
0
10
38.5377123
20
20.5236042
40
14.7875891
50
18.0243903
51
29.7106327
0
ARC
8
0
10
38.4911259
20
20.5103544
40
14.8359892
50
9.0436076
51
18.0173797
0
ARC
8
0
10
38.2610696
20
20.4746347
40
15.0688003
50
1.6851895
51
9.040239
0
ARC
8
0
10
38.0238102
20
20.4641245
40
15.3062666
50
359.9989851
51
1.6983971
0
ARC
8
0
10
38.1772886
20
20.4596819
40
15.1527886
50
352.8103277
51
0.0157732
0
ARC
8
0
10
38.4541179
20
20.4256029
40
14.8738706
50
344.2300063
51
352.8071098
0
ARC
8
0
10
38.5422821
20
20.4023601
40
14.7827082
50
333.4234886
51
344.223832
0
ARC
8
0
10
38.4613062
20
20.4492249
40
14.876096
50
299.7188237
51
333.4015927
0
ARC
8
0
10
38.5070225
20
20.3733903
40
14.7875725
50
288.0243947
51
299.7106537
0
ARC
8
0
10
38.49377
20
20.4199768
40
14.8359736
50
279.0436078
51
288.0173941
0
ARC
8
0
10
38.4580493
20
20.6500183
40
15.0687702
50
271.6851813
51
279.0402514
0
ARC
8
0
10
38.4475357
20
20.8873358
40
15.3062946
50
269.9989851
51
271.6983956
0
ARC
8
0
10
38.4430962
20
20.7338287
40
15.152788
50
262.8103156
51
270.0157613
0
ARC
8
0
10
38.4090168
20
20.4570005
40
14.8738714
50
254.2299962
51
262.8070997
0
ARC
8
0
10
38.3857694
20
20.3688184
40
14.7826903
50
243.4234623
51
254.22382
0
ARC
8
0
10
38.432645
20
20.4498198
40
14.8761059
50
209.7188218
51
243.4015737
0
ARC
8
0
10
38.3568034
20
20.4041009
40
14.7875752
50
198.0244014
51
209.7106563
0
ARC
8
0
10
38.4033732
20
20.4173488
40
14.8359588
50
189.0436125
51
198.0174035
0
ARC
8
0
10
38.6334113
20
20.4530691
40
15.0687521
50
181.6851835
51
189.0402568
0
ARC
8
0
10
38.8707189
20
20.4635823
40
15.3062666
50
179.9989851
51
181.6983971
0
LINE
8
DEFAULT_255_2_778
10
23.5644525
20
20.4638534
11
23.5644525
21
20.4638534
0
LINE
8
DEFAULT_255_2_778
10
12.4023434
20
20.4638666
11
23.5644525
21
20.4638666
0
LINE
8
DEFAULT_255_2_778
10
66.9726544
20
20.4638666
11
53.3300766
21
20.4638666
0
LINE
8
DEFAULT_255_2_778
10
38.4472646
20
35.3466787
11
38.4472646
21
-8.0615232
0
LINE
8
DEFAULT_255_2_778
10
48.3691393
20
25.424804
11
48.3691393
21
15.5029293
0
LINE
8
DEFAULT_255_2_778
10
48.3691393
20
15.5029293
11
53.3114772
21
20.4638666
0
LINE
8
DEFAULT_255_2_778
10
53.3114772
20
20.4638666
11
48.3691393
21
25.424804
0
LINE
8
DEFAULT_4_2_778
10
35.9667959
20
-8.0615364
11
40.9277332
21
-8.0615364
0
LINE
8
DEFAULT_4_2_778
10
38.4472778
20
-8.0615232
11
38.4472778
21
-10.5419919
0
LINE
8
DEFAULT_4_2_778
10
66.9726676
20
22.9443353
11
66.9726676
21
17.9833979
0
LINE
8
DEFAULT_4_2_778
10
66.9726544
20
20.4638534
11
69.4531231
21
20.4638534
0
LINE
8
DEFAULT_4_2_778
10
12.4023434
20
22.9443221
11
12.4023434
21
17.9833847
0
LINE
8
DEFAULT_4_2_778
10
9.9218747
20
20.4638534
11
12.4023434
21
20.4638534
0
LINE
8
DEFAULT_255_2_778
10
23.5644419
20
25.4247908
11
23.5644419
21
15.502916
0
LINE
8
DEFAULT_255_2_778
10
23.5644419
20
15.502916
11
28.5067737
21
20.4638534
0
LINE
8
DEFAULT_255_2_778
10
28.5067737
20
20.4638534
11
23.5644419
21
25.4247908
0
LINE
8
DEFAULT_255_2_778
10
38.4472646
20
35.3466655
11
44.6484363
21
37.1202006
0
LINE
8
DEFAULT_255_2_778
10
44.6484363
20
37.1202006
11
32.2460929
21
38.8937337
0
LINE
8
DEFAULT_255_2_778
10
32.2460929
20
38.8937337
11
44.6484363
21
40.6672728
0
LINE
8
DEFAULT_255_2_778
10
44.6484363
20
40.6672728
11
32.2460929
21
42.4408059
0
LINE
8
DEFAULT_255_2_778
10
32.2460929
20
42.4408059
11
44.6484363
21
44.214341
0
LINE
8
DEFAULT_255_2_778
10
44.6484363
20
44.214341
11
32.2460929
21
45.9878751
0
LINE
8
DEFAULT_255_2_778
10
32.2460929
20
45.9878751
11
38.4472646
21
47.7490089
0
LINE
8
DEFAULT_255_2_778
10
54.570311
20
35.3466655
11
22.3242181
21
47.7490089
0
LINE
8
DEFAULT_255_2_778
10
22.3242181
20
47.7490089
11
28.6469304
21
42.7880715
0
LINE
8
DEFAULT_255_2_778
10
28.6469304
20
42.7880715
11
30.5444909
21
47.1288917
0
LINE
8
DEFAULT_255_2_778
10
30.5444909
20
47.1288917
11
22.3254555
21
47.7490089
0
ENDSEC
0
EOF