0
SECTION
2
HEADER
0
ENDSEC
0
SECTION
2
TABLES
0
TABLE
2
LTYPE
0
LTYPE
72
65
70
64
2
CONTINUOUS
3
______
73
0
40
0
0
ENDTAB
0
TABLE
2
LAYER
0
LAYER
2
DEFAULT_255_2_778
70
0
62
255
6
CONTINUOUS
0
LAYER
2
DEFAULT_4_2_778
70
0
62
4
6
CONTINUOUS
0
ENDTAB
0
ENDSEC
0
SECTION
2
ENTITIES
0
LINE
8
DEFAULT_255_2_778
10
17.363294
20
1.2402343
11
45.8886838
21
1.2402343
0
LINE
8
DEFAULT_255_2_778
10
45.8886838
20
1.2402343
11
45.8886838
21
-16.1230464
0
LINE
8
DEFAULT_255_2_778
10
45.8886838
20
-16.1230464
11
17.363294
21
-16.1230464
0
LINE
8
DEFAULT_255_2_778
10
17.363294
20
-16.1230464
11
17.363294
21
1.2402343
0
LINE
8
DEFAULT_255_2_778
10
12.4023434
20
-7.441406
11
66.9726544
21
-7.441406
0
LINE
8
DEFAULT_255_2_778
10
38.4472646
20
-16.1230464
11
38.4472646
21
-21.0839838
0
LINE
8
DEFAULT_255_2_778
10
38.4472646
20
-21.0839838
11
55.8105453
21
-21.0839838
0
LINE
8
DEFAULT_255_2_778
10
55.8105453
20
-21.0839838
11
55.8105453
21
-3.720703
0
LINE
8
DEFAULT_255_2_778
10
46.2508136
20
-7.441406
11
39.6874911
21
-5.5810545
0
LINE
8
DEFAULT_255_2_778
10
39.6874911
20
-5.5810545
11
39.6874911
21
-9.3017576
0
LINE
8
DEFAULT_255_2_778
10
39.6874911
20
-9.3017576
11
46.2508136
21
-7.441406
0
LINE
8
DEFAULT_4_2_778
10
66.9726544
20
-4.9609374
11
66.9726544
21
-9.9218747
0
LINE
8
DEFAULT_4_2_778
10
66.9726544
20
-7.441406
11
69.4531231
21
-7.441406
0
LINE
8
DEFAULT_4_2_778
10
12.4023434
20
-4.9609374
11
12.4023434
21
-9.9218747
0
LINE
8
DEFAULT_4_2_778
10
9.9218747
20
-7.441406
11
12.4023434
21
-7.441406
0
ARC
8
0
10
55.9627597
20
6.2052756
40
10.0740899
50
171.019885
51
180.0233409
0
ARC
8
0
10
55.7726871
20
6.2340672
40
9.8818532
50
159.760586
51
171.012753
0
ARC
8
0
10
55.7653071
20
6.2340592
40
9.8749319
50
143.1980096
51
159.745729
0
ARC
8
0
10
55.7980809
20
6.2132981
40
9.9136116
50
114.9928356
51
143.2154033
0
ARC
8
0
10
55.7711105
20
6.2606604
40
9.8592903
50
102.5772612
51
114.9670675
0
ARC
8
0
10
55.7966891
20
6.1392252
40
9.9833813
50
93.1352033
51
102.5687762
0
ARC
8
0
10
55.8099461
20
5.9484125
40
10.1746339
50
89.9966258
51
93.1509775
0
ARC
8
0
10
55.8146493
20
6.0489573
40
10.0740899
50
81.019885
51
90.0233409
0
ARC
8
0
10
55.8434408
20
6.2390299
40
9.8818532
50
69.760586
51
81.012753
0
ARC
8
0
10
55.8434328
20
6.2464099
40
9.8749319
50
53.1980096
51
69.745729
0
ARC
8
0
10
55.8226717
20
6.2136361
40
9.9136116
50
24.9928356
51
53.2154033
0
ARC
8
0
10
55.870034
20
6.2406065
40
9.8592903
50
12.5772612
51
24.9670675
0
ARC
8
0
10
55.7485988
20
6.2150279
40
9.9833813
50
3.1352033
51
12.5687762
0
ARC
8
0
10
55.5577861
20
6.2017709
40
10.1746339
50
359.9966258
51
3.1509775
0
ARC
8
0
10
55.658331
20
6.1970678
40
10.0740899
50
351.019885
51
0.0233409
0
ARC
8
0
10
55.8484035
20
6.1682762
40
9.8818532
50
339.760586
51
351.012753
0
ARC
8
0
10
55.8557835
20
6.1682842
40
9.8749319
50
323.1980096
51
339.745729
0
ARC
8
0
10
55.8230097
20
6.1890453
40
9.9136116
50
294.9928356
51
323.2154033
0
ARC
8
0
10
55.8499801
20
6.141683
40
9.8592903
50
282.5772612
51
294.9670675
0
ARC
8
0
10
55.8244015
20
6.2631182
40
9.9833813
50
273.1352033
51
282.5687762
0
ARC
8
0
10
55.8111445
20
6.4539309
40
10.1746339
50
269.9966258
51
273.1509775
0
ARC
8
0
10
55.8064414
20
6.3533861
40
10.0740899
50
261.019885
51
270.0233409
0
ARC
8
0
10
55.7776498
20
6.1633135
40
9.8818532
50
249.760586
51
261.012753
0
ARC
8
0
10
55.7776578
20
6.1559335
40
9.8749319
50
233.1980096
51
249.745729
0
ARC
8
0
10
55.7984189
20
6.1887073
40
9.9136116
50
204.9928356
51
233.2154033
0
ARC
8
0
10
55.7510566
20
6.1617369
40
9.8592903
50
192.5772612
51
204.9670675
0
ARC
8
0
10
55.8724918
20
6.1873155
40
9.9833813
50
183.1352033
51
192.5687762
0
ARC
8
0
10
56.0633045
20
6.2005725
40
10.1746339
50
179.9966258
51
183.1509775
0
LINE
8
DEFAULT_255_2_778
10
45.8886706
20
6.2011717
11
45.8886706
21
6.2011717
0
LINE
8
DEFAULT_255_2_778
10
62.7558576
20
-0.7441406
11
48.865233
21
13.146484
0
LINE
8
DEFAULT_255_2_778
10
48.865233
20
13.146484
11
52.8339829
21
6.2011717
0
LINE
8
DEFAULT_255_2_778
10
52.8339829
20
6.2011717
11
55.8105453
21
9.1777341
0
LINE
8
DEFAULT_255_2_778
10
55.8105453
20
9.1777341
11
48.865233
21
13.146484
0
LINE
8
DEFAULT_255_2_778
10
30.3857546
20
1.2402343
11
35.3466919
21
2.6578238
0
LINE
8
DEFAULT_255_2_778
10
35.3466919
20
2.6578238
11
25.4248172
21
4.0754133
0
LINE
8
DEFAULT_255_2_778
10
25.4248172
20
4.0754133
11
35.3466919
21
5.4942401
0
LINE
8
DEFAULT_255_2_778
10
35.3466919
20
5.4942401
11
25.4248172
21
6.9081033
0
LINE
8
DEFAULT_255_2_778
10
25.4248172
20
6.9081033
11
35.3466919
21
8.3269342
0
LINE
8
DEFAULT_255_2_778
10
35.3466919
20
8.3269342
11
25.4248172
21
9.7445196
0
LINE
8
DEFAULT_255_2_778
10
25.4248172
20
9.7445196
11
30.3857546
21
11.1621091
0
LINE
8
DEFAULT_255_2_778
10
42.7880847
20
2.4804753
11
16.7431636
21
10.5419985
0
LINE
8
DEFAULT_255_2_778
10
16.7431636
20
10.5419985
11
22.5164565
21
6.7468834
0
LINE
8
DEFAULT_255_2_778
10
22.5164565
20
6.7468834
11
24.2490642
21
10.0657477
0
LINE
8
DEFAULT_255_2_778
10
24.2490642
20
10.0657477
11
16.7431636
21
10.5419985
0
ENDSEC
0
EOF