0
SECTION
2
HEADER
0
ENDSEC
0
SECTION
2
TABLES
0
TABLE
2
LTYPE
0
LTYPE
72
65
70
64
2
CONTINUOUS
3
______
73
0
40
0
0
ENDTAB
0
TABLE
2
LAYER
0
LAYER
2
DEFAULT_255_2_778
70
0
62
255
6
CONTINUOUS
0
LAYER
2
DEFAULT_4_2_778
70
0
62
4
6
CONTINUOUS
0
ENDTAB
0
ENDSEC
0
SECTION
2
ENTITIES
0
LINE
8
DEFAULT_255_2_778
10
21.083997
20
-1.2402343
11
54.5703242
21
-1.2402343
0
LINE
8
DEFAULT_255_2_778
10
54.5703242
20
-1.2402343
11
54.5703242
21
-18.6035151
0
LINE
8
DEFAULT_255_2_778
10
54.5703242
20
-18.6035151
11
21.083997
21
-18.6035151
0
LINE
8
DEFAULT_255_2_778
10
21.083997
20
-18.6035151
11
21.083997
21
-1.2402343
0
LINE
8
DEFAULT_255_2_778
10
12.4023566
20
-13.6425777
11
42.1679808
21
-13.6425777
0
LINE
8
DEFAULT_255_2_778
10
38.4472778
20
-18.6035151
11
38.4472778
21
-23.5644525
0
LINE
8
DEFAULT_255_2_778
10
38.4472778
20
-23.5644525
11
60.7714959
21
-23.5644525
0
LINE
8
DEFAULT_255_2_778
10
60.7714959
20
-23.5644525
11
60.7714959
21
-13.6425777
0
LINE
8
DEFAULT_255_2_778
10
42.1679808
20
-13.6425777
11
35.9668091
21
-11.7822262
0
LINE
8
DEFAULT_255_2_778
10
35.9668091
20
-11.7822262
11
35.9668091
21
-15.5029293
0
LINE
8
DEFAULT_255_2_778
10
35.9668091
20
-15.5029293
11
42.1679808
21
-13.6425777
0
LINE
8
DEFAULT_4_2_778
10
12.4023434
20
-11.1621091
11
12.4023434
21
-16.1230464
0
LINE
8
DEFAULT_4_2_778
10
9.9218747
20
-13.6425777
11
12.4023434
21
-13.6425777
0
LINE
8
DEFAULT_255_2_778
10
34.1064576
20
-1.2402343
11
39.067395
21
0.1773551
0
LINE
8
DEFAULT_255_2_778
10
39.067395
20
0.1773551
11
29.1455202
21
1.5949406
0
LINE
8
DEFAULT_255_2_778
10
29.1455202
20
1.5949406
11
39.067395
21
3.0137694
0
LINE
8
DEFAULT_255_2_778
10
39.067395
20
3.0137694
11
29.1455202
21
4.4276366
0
LINE
8
DEFAULT_255_2_778
10
29.1455202
20
4.4276366
11
39.067395
21
5.8464655
0
LINE
8
DEFAULT_255_2_778
10
39.067395
20
5.8464655
11
29.1455202
21
7.2640509
0
LINE
8
DEFAULT_255_2_778
10
29.1455202
20
7.2640509
11
34.1064576
21
8.6816404
0
LINE
8
DEFAULT_255_2_778
10
20.4638732
20
0
11
46.5087944
21
8.0615232
0
LINE
8
DEFAULT_255_2_778
10
46.5087944
20
8.0615232
11
40.7354995
21
4.2664081
0
LINE
8
DEFAULT_255_2_778
10
40.7354995
20
4.2664081
11
39.0029018
21
7.5852724
0
LINE
8
DEFAULT_255_2_778
10
39.0029018
20
7.5852724
11
46.5087944
21
8.0615232
0
LINE
8
DEFAULT_255_2_778
10
21.0839904
20
-13.6425777
11
27.2851621
21
-11.7822262
0
LINE
8
DEFAULT_255_2_778
10
27.2851621
20
-11.7822262
11
27.2851621
21
-15.5029293
0
LINE
8
DEFAULT_255_2_778
10
27.2851621
20
-15.5029293
11
21.0839904
21
-13.6425777
0
LINE
8
DEFAULT_255_2_778
10
42.1679742
20
-12.4023434
11
42.1679742
21
-14.8828121
0
LINE
8
DEFAULT_255_2_778
10
54.5703176
20
-13.6425777
11
66.972661
21
-13.6425777
0
LINE
8
DEFAULT_4_2_778
10
66.9726544
20
-11.1621091
11
66.9726544
21
-16.1230464
0
LINE
8
DEFAULT_4_2_778
10
66.9726544
20
-13.6425777
11
69.4531231
21
-13.6425777
0
LINE
8
DEFAULT_255_2_778
10
21.083997
20
-6.2011717
11
17.363294
21
-2.4804687
0
LINE
8
DEFAULT_255_2_778
10
17.363294
20
-2.4804687
11
17.363294
21
-9.9218747
0
LINE
8
DEFAULT_255_2_778
10
17.363294
20
-9.9218747
11
21.083997
21
-6.2011717
0
ENDSEC
0
EOF