0
SECTION
2
HEADER
0
ENDSEC
0
SECTION
2
TABLES
0
TABLE
2
LTYPE
0
LTYPE
72
65
70
64
2
CONTINUOUS
3
______
73
0
40
0
0
ENDTAB
0
TABLE
2
LAYER
0
LAYER
2
DEFAULT_255_2_778
70
0
62
255
6
CONTINUOUS
0
LAYER
2
DEFAULT_4_2_778
70
0
62
4
6
CONTINUOUS
0
ENDTAB
0
ENDSEC
0
SECTION
2
ENTITIES
0
LINE
8
DEFAULT_255_2_778
10
52.7099727
20
1.2402476
11
35.3466919
21
1.2402476
0
LINE
8
DEFAULT_255_2_778
10
35.3466919
20
1.2402476
11
35.3466919
21
34.7265748
0
LINE
8
DEFAULT_255_2_778
10
35.3466919
20
34.7265748
11
52.7099727
21
34.7265748
0
LINE
8
DEFAULT_255_2_778
10
52.7099727
20
34.7265748
11
52.7099727
21
1.2402476
0
LINE
8
DEFAULT_255_2_778
10
45.2685667
20
-7.4414193
11
45.2685667
21
1.2402211
0
LINE
8
DEFAULT_255_2_778
10
40.3076293
20
34.7265748
11
42.1679808
21
28.5254031
0
LINE
8
DEFAULT_255_2_778
10
42.1679808
20
28.5254031
11
38.4472778
21
28.5254031
0
LINE
8
DEFAULT_255_2_778
10
38.4472778
20
28.5254031
11
40.3076293
21
34.7265748
0
LINE
8
DEFAULT_255_2_778
10
36.5869263
20
1.2402476
11
40.3076293
21
-2.4804555
0
LINE
8
DEFAULT_255_2_778
10
40.3076293
20
-2.4804555
11
44.0283323
21
1.2402476
0
LINE
8
DEFAULT_255_2_778
10
44.0283323
20
1.2402476
11
36.5869263
21
1.2402476
0
LINE
8
DEFAULT_4_2_778
10
42.788098
20
-7.441406
11
47.7490353
21
-7.441406
0
LINE
8
DEFAULT_4_2_778
10
45.2685667
20
-9.9218747
11
45.2685667
21
-7.441406
0
LINE
8
DEFAULT_255_2_778
10
40.3076293
20
1.2402476
11
38.4472778
21
7.4414193
0
LINE
8
DEFAULT_255_2_778
10
38.4472778
20
7.4414193
11
42.1679808
21
7.4414193
0
LINE
8
DEFAULT_255_2_778
10
42.1679808
20
7.4414193
11
40.3076293
21
1.2402476
0
LINE
8
DEFAULT_255_2_778
10
52.7099727
20
8.6816404
11
54.1275622
21
13.6425777
0
LINE
8
DEFAULT_255_2_778
10
54.1275622
20
13.6425777
11
55.5451516
21
3.720703
0
LINE
8
DEFAULT_255_2_778
10
55.5451516
20
3.720703
11
56.9639805
21
13.6425777
0
LINE
8
DEFAULT_255_2_778
10
56.9639805
20
13.6425777
11
58.3778396
21
3.720703
0
LINE
8
DEFAULT_255_2_778
10
58.3778396
20
3.720703
11
59.7954291
21
13.6425777
0
LINE
8
DEFAULT_255_2_778
10
59.7954291
20
13.6425777
11
61.2130185
21
3.720703
0
LINE
8
DEFAULT_255_2_778
10
61.2130185
20
3.720703
11
62.6318474
21
8.6816404
0
LINE
8
DEFAULT_255_2_778
10
53.9501872
20
-4.9609241
11
62.0117104
21
21.083997
0
LINE
8
DEFAULT_255_2_778
10
62.0117104
20
21.083997
11
58.2165893
21
15.3107021
0
LINE
8
DEFAULT_255_2_778
10
58.2165893
20
15.3107021
11
61.5379425
21
13.5805793
0
LINE
8
DEFAULT_255_2_778
10
61.5379425
20
13.5805793
11
62.0117104
21
21.083997
0
LINE
8
DEFAULT_255_2_778
10
40.3076293
20
1.2402211
11
40.3076293
21
34.7265483
0
LINE
8
DEFAULT_255_2_778
10
45.2685667
20
34.7265615
11
45.2685667
21
47.1289049
0
LINE
8
DEFAULT_4_2_778
10
42.788098
20
47.1289049
11
47.7490353
21
47.1289049
0
LINE
8
DEFAULT_4_2_778
10
45.2685667
20
47.1289049
11
45.2685667
21
49.6093736
0
LINE
8
DEFAULT_255_2_778
10
25.4248172
20
7.441406
11
30.3857546
21
12.4023434
0
LINE
8
DEFAULT_255_2_778
10
30.3857546
20
12.4023434
11
25.4248172
21
17.3632808
0
LINE
8
DEFAULT_255_2_778
10
25.4248172
20
17.3632808
11
25.4248172
21
7.441406
0
LINE
8
DEFAULT_255_2_778
10
35.3466919
20
12.4023434
11
30.3857546
21
12.4023434
0
LINE
8
DEFAULT_255_2_778
10
25.424804
20
12.4023434
11
19.2236323
21
12.4023434
0
LINE
8
DEFAULT_4_2_778
10
19.2236455
20
14.8828121
11
19.2236455
21
9.9218747
0
LINE
8
DEFAULT_4_2_778
10
16.7431768
20
12.4023434
11
19.2236455
21
12.4023434
0
ENDSEC
0
EOF