0
SECTION
2
HEADER
0
ENDSEC
0
SECTION
2
TABLES
0
TABLE
2
LTYPE
0
LTYPE
72
65
70
64
2
CONTINUOUS
3
______
73
0
40
0
0
ENDTAB
0
TABLE
2
LAYER
0
LAYER
2
DEFAULT_255_2_778
70
0
62
255
6
CONTINUOUS
0
LAYER
2
DEFAULT_4_2_778
70
0
62
4
6
CONTINUOUS
0
ENDTAB
0
ENDSEC
0
SECTION
2
ENTITIES
0
LINE
8
DEFAULT_255_2_778
10
24.1845829
20
33.486314
11
58.9111444
21
33.486314
0
LINE
8
DEFAULT_255_2_778
10
58.9111444
20
33.486314
11
58.9111444
21
14.8827989
0
LINE
8
DEFAULT_255_2_778
10
58.9111444
20
14.8827989
11
24.1845829
21
14.8827989
0
LINE
8
DEFAULT_255_2_778
10
24.1845829
20
14.8827989
11
24.1845829
21
33.486314
0
LINE
8
DEFAULT_255_2_778
10
46.5087878
20
19.8437494
11
46.5087878
21
-7.441406
0
LINE
8
DEFAULT_255_2_778
10
55.1904282
20
-7.441406
11
55.1904282
21
14.8828121
0
LINE
8
DEFAULT_255_2_778
10
55.1904282
20
14.8828121
11
48.9892564
21
33.4863272
0
LINE
8
DEFAULT_255_2_778
10
48.9892564
20
33.4863272
11
48.9892564
21
47.1289049
0
LINE
8
DEFAULT_255_2_778
10
30.3857546
20
33.486314
11
30.3857546
21
14.8827989
0
LINE
8
DEFAULT_255_2_778
10
47.7490353
20
19.8437494
11
45.2685667
21
19.8437494
0
LINE
8
DEFAULT_4_2_778
10
46.508801
20
47.1289049
11
51.4697384
21
47.1289049
0
LINE
8
DEFAULT_4_2_778
10
48.9892564
20
49.6093736
11
48.9892564
21
47.1289049
0
LINE
8
DEFAULT_4_2_778
10
52.7099595
20
-7.441406
11
57.6708968
21
-7.441406
0
LINE
8
DEFAULT_4_2_778
10
55.1904282
20
-7.441406
11
55.1904282
21
-9.9218747
0
LINE
8
DEFAULT_4_2_778
10
44.0283191
20
-7.441406
11
48.9892564
21
-7.441406
0
LINE
8
DEFAULT_4_2_778
10
46.508801
20
-7.441406
11
46.508801
21
-9.9218747
0
LINE
8
DEFAULT_255_2_778
10
55.1904414
20
14.8828055
11
55.1904414
21
19.2236257
0
LINE
8
DEFAULT_255_2_778
10
55.1904414
20
19.2236257
11
52.7099727
21
18.6035085
0
LINE
8
DEFAULT_255_2_778
10
52.7099727
20
18.6035085
11
55.1904414
21
14.8828055
0
LINE
8
DEFAULT_255_2_778
10
31.6259889
20
28.5253898
11
30.3857546
21
33.4863272
0
LINE
8
DEFAULT_255_2_778
10
30.3857546
20
33.4863272
11
29.1455202
21
28.5253898
0
LINE
8
DEFAULT_255_2_778
10
29.1455202
20
28.5253898
11
31.6259889
21
28.5253898
0
LINE
8
DEFAULT_255_2_778
10
37.8271606
20
19.8437494
11
35.3466919
21
19.8437494
0
LINE
8
DEFAULT_255_2_778
10
36.5869263
20
19.8437494
11
36.5869263
21
14.8828121
0
LINE
8
DEFAULT_255_2_778
10
58.9111312
20
19.8437494
11
60.1513655
21
24.8046868
0
LINE
8
DEFAULT_255_2_778
10
60.1513655
20
24.8046868
11
61.3915999
21
14.8828121
0
LINE
8
DEFAULT_255_2_778
10
61.3915999
20
14.8828121
11
62.6318342
21
24.8046868
0
LINE
8
DEFAULT_255_2_778
10
62.6318342
20
24.8046868
11
63.8720685
21
14.8828121
0
LINE
8
DEFAULT_255_2_778
10
63.8720685
20
14.8828121
11
65.1123029
21
24.8046868
0
LINE
8
DEFAULT_255_2_778
10
65.1123029
20
24.8046868
11
66.3525372
21
14.8828121
0
LINE
8
DEFAULT_255_2_778
10
66.3525372
20
14.8828121
11
67.5927716
21
19.8437494
0
LINE
8
DEFAULT_255_2_778
10
41.5478636
20
33.486314
11
41.5478636
21
14.8827989
0
LINE
8
DEFAULT_255_2_778
10
11.7822395
20
22.3242181
11
24.1845829
21
22.3242181
0
LINE
8
DEFAULT_255_2_778
10
24.1845829
20
22.3242181
11
24.1845829
21
14.8828121
0
LINE
8
DEFAULT_255_2_778
10
24.1845829
20
14.8828121
11
11.7822395
21
14.8828121
0
LINE
8
DEFAULT_255_2_778
10
11.7822395
20
14.8828121
11
11.7822395
21
22.3242181
0
LINE
8
DEFAULT_255_2_778
10
15.5029293
20
17.3632808
11
15.5029293
21
19.8437494
0
LINE
8
DEFAULT_255_2_778
10
15.5029293
20
19.8437494
11
16.7431636
21
19.8437494
0
LINE
8
DEFAULT_255_2_778
10
16.7431636
20
19.8437494
11
16.7431636
21
21.0839838
0
LINE
8
DEFAULT_255_2_778
10
16.7431636
20
21.0839838
11
14.2626949
21
21.0839838
0
LINE
8
DEFAULT_255_2_778
10
14.2626949
20
21.0839838
11
14.2626949
21
16.1230464
0
LINE
8
DEFAULT_255_2_778
10
14.2626949
20
16.1230464
11
16.7431636
21
16.1230464
0
LINE
8
DEFAULT_255_2_778
10
16.7431636
20
16.1230464
11
16.7431636
21
17.3632808
0
LINE
8
DEFAULT_255_2_778
10
16.7431636
20
17.3632808
11
15.5029293
21
17.3632808
0
LINE
8
DEFAULT_255_2_778
10
19.2236323
20
20.4638666
11
19.2236323
21
16.7431636
0
LINE
8
DEFAULT_255_2_778
10
20.4638666
20
20.4638666
11
20.4638666
21
16.7431636
0
LINE
8
DEFAULT_255_2_778
10
19.8437494
20
21.0839838
11
22.3242181
21
18.6035151
0
LINE
8
DEFAULT_255_2_778
10
22.3242181
20
18.6035151
11
19.8437494
21
16.1230464
0
LINE
8
DEFAULT_255_2_778
10
19.8437494
20
16.1230464
11
17.3632808
21
18.6035151
0
LINE
8
DEFAULT_255_2_778
10
17.3632808
20
18.6035151
11
19.8437494
21
21.0839838
0
ENDSEC
0
EOF