0
SECTION
2
HEADER
0
ENDSEC
0
SECTION
2
TABLES
0
TABLE
2
LTYPE
0
LTYPE
72
65
70
64
2
CONTINUOUS
3
______
73
0
40
0
0
ENDTAB
0
TABLE
2
LAYER
0
LAYER
2
DEFAULT_255_2_778
70
0
62
255
6
CONTINUOUS
0
LAYER
2
DEFAULT_4_2_778
70
0
62
4
6
CONTINUOUS
0
ENDTAB
0
ENDSEC
0
SECTION
2
ENTITIES
0
LINE
8
DEFAULT_255_2_778
10
60.7714827
20
0
11
18.6035151
21
0
0
LINE
8
DEFAULT_255_2_778
10
18.6035151
20
0
11
18.6035151
21
39.6874989
0
LINE
8
DEFAULT_255_2_778
10
18.6035151
20
39.6874989
11
60.7714827
21
39.6874989
0
LINE
8
DEFAULT_255_2_778
10
60.7714827
20
39.6874989
11
60.7714827
21
0
0
LINE
8
DEFAULT_255_2_778
10
33.4863272
20
46.5087812
11
33.4863272
21
-7.4414127
0
LINE
8
DEFAULT_255_2_778
10
42.1679676
20
9.9218747
11
22.3242181
21
29.7656242
0
LINE
8
DEFAULT_255_2_778
10
22.3242181
20
29.7656242
11
25.3007805
21
22.8203119
0
LINE
8
DEFAULT_255_2_778
10
25.3007805
20
22.8203119
11
29.2695304
21
26.7890618
0
LINE
8
DEFAULT_255_2_778
10
29.2695304
20
26.7890618
11
22.3242181
21
29.7656242
0
LINE
8
DEFAULT_4_2_778
10
35.9667959
20
47.1289049
11
31.0058585
21
47.1289049
0
LINE
8
DEFAULT_4_2_778
10
33.4863272
20
49.6093736
11
33.4863272
21
47.1289049
0
LINE
8
DEFAULT_4_2_778
10
35.9667959
20
-7.441406
11
31.0058585
21
-7.441406
0
LINE
8
DEFAULT_4_2_778
10
33.4863272
20
-7.441406
11
33.4863272
21
-9.9218747
0
ARC
8
0
10
27.2801268
20
27.9208636
40
1.8447674
50
57.9877864
51
89.8434063
0
ARC
8
0
10
26.985905
20
27.4099778
40
2.434026
50
48.7495683
51
58.4901151
0
ARC
8
0
10
26.5453607
20
26.904513
40
3.1045262
50
41.3921339
51
48.7876317
0
ARC
8
0
10
25.9040837
20
26.3364376
40
3.9612306
50
35.60708
51
41.4232775
0
ARC
8
0
10
25.0560805
20
25.7269425
40
5.0055443
50
30.8706408
51
35.6277948
0
ARC
8
0
10
24.0196396
20
25.1046481
40
6.2144512
50
27.082365
51
30.8921534
0
ARC
8
0
10
22.7683732
20
24.4643685
40
7.6200205
50
23.622764
51
27.0854457
0
ARC
8
0
10
21.2356003
20
23.7930164
40
9.2933721
50
20.5350881
51
23.6282702
0
ARC
8
0
10
19.4480081
20
23.1220711
40
11.202731
50
17.8071753
51
20.5415243
0
ARC
8
0
10
17.4617442
20
22.4825124
40
13.2894218
50
15.4098012
51
17.8135984
0
ARC
8
0
10
15.2764198
20
21.8796366
40
15.5563805
50
13.1500565
51
15.4117007
0
ARC
8
0
10
12.9213299
20
21.3282139
40
17.975164
50
11.0864287
51
13.1538021
0
ARC
8
0
10
10.4303817
20
20.8400285
40
20.5134995
50
9.0379952
51
11.086685
0
ARC
8
0
10
7.9211293
20
20.4394417
40
23.0545263
50
7.1412455
51
9.0415646
0
ARC
8
0
10
5.5567469
20
20.1426396
40
25.4374647
50
5.2308224
51
7.1425287
0
ARC
8
0
10
3.1513802
20
19.9257301
40
27.8525897
50
2.5886552
51
5.2240605
0
ARC
8
0
10
1.4957557
20
19.846218
40
29.5101162
50
359.9952071
51
2.597692
0
ARC
8
0
10
1.7287879
20
19.8372044
40
29.2770846
50
356.3886389
51
0.0128087
0
ARC
8
0
10
4.04345
20
19.692931
40
26.9579313
50
353.957746
51
356.384792
0
ARC
8
0
10
6.6493001
20
19.4182606
40
24.3376455
50
351.8799603
51
353.9550337
0
ARC
8
0
10
9.2910451
20
19.0407544
40
21.6690641
50
349.794028
51
351.881498
0
ARC
8
0
10
11.9134743
20
18.5682742
40
19.0044116
50
347.6720701
51
349.7950621
0
ARC
8
0
10
14.3695374
20
18.0313216
40
16.4903385
50
345.4972861
51
347.6727148
0
ARC
8
0
10
16.6845999
20
17.430887
40
14.0986793
50
343.0256007
51
345.503588
0
ARC
8
0
10
18.8293769
20
16.7755094
40
11.8560051
50
340.3375774
51
343.028842
0
ARC
8
0
10
20.6943927
20
16.1085913
40
9.8753328
50
337.4166153
51
340.340448
0
ARC
8
0
10
22.291388
20
15.4433727
40
8.1453302
50
334.1174648
51
337.4230901
0
ARC
8
0
10
23.6319393
20
14.7922203
40
6.6550024
50
330.4160578
51
334.123046
0
ARC
8
0
10
24.740172
20
14.1616032
40
5.3799118
50
326.0239872
51
330.4296175
0
ARC
8
0
10
25.647523
20
13.5482927
40
4.2847257
50
320.6420791
51
326.044469
0
ARC
8
0
10
26.3541522
20
12.9666466
40
3.3695025
50
313.8907343
51
320.6694655
0
ARC
8
0
10
26.8631174
20
12.4348173
40
2.6333752
50
304.9743426
51
313.9324417
0
ARC
8
0
10
27.1866534
20
11.9664651
40
2.0641522
50
291.0574953
51
305.0674881
0
ARC
8
0
10
27.2872834
20
11.718032
40
1.7961586
50
269.9325435
51
290.9092672
0
ARC
8
0
10
39.692554
20
27.9208636
40
1.8447674
50
90.1565937
51
122.0122136
0
ARC
8
0
10
39.9867759
20
27.4099778
40
2.434026
50
121.5098849
51
131.2504317
0
ARC
8
0
10
40.4273202
20
26.904513
40
3.1045262
50
131.2123683
51
138.6078661
0
ARC
8
0
10
41.0685971
20
26.3364376
40
3.9612306
50
138.5767225
51
144.39292
0
ARC
8
0
10
41.9166004
20
25.7269425
40
5.0055443
50
144.3722052
51
149.1293592
0
ARC
8
0
10
42.9530413
20
25.1046481
40
6.2144512
50
149.1078466
51
152.917635
0
ARC
8
0
10
44.2043077
20
24.4643685
40
7.6200205
50
152.9145543
51
156.377236
0
ARC
8
0
10
45.7370805
20
23.7930164
40
9.2933721
50
156.3717298
51
159.4649119
0
ARC
8
0
10
47.5246727
20
23.1220711
40
11.202731
50
159.4584757
51
162.1928247
0
ARC
8
0
10
49.5109367
20
22.4825124
40
13.2894218
50
162.1864016
51
164.5901988
0
ARC
8
0
10
51.696261
20
21.8796366
40
15.5563805
50
164.5882993
51
166.8499435
0
ARC
8
0
10
54.0513509
20
21.3282139
40
17.975164
50
166.8461979
51
168.9135713
0
ARC
8
0
10
56.5422991
20
20.8400285
40
20.5134995
50
168.913315
51
170.9620048
0
ARC
8
0
10
59.0515516
20
20.4394417
40
23.0545263
50
170.9584354
51
172.8587545
0
ARC
8
0
10
61.415934
20
20.1426396
40
25.4374647
50
172.8574713
51
174.7691776
0
ARC
8
0
10
63.8213007
20
19.9257301
40
27.8525897
50
174.7759395
51
177.4113448
0
ARC
8
0
10
65.4769251
20
19.846218
40
29.5101162
50
177.402308
51
180.0047929
0
ARC
8
0
10
65.243893
20
19.8372044
40
29.2770846
50
179.9871913
51
183.6113611
0
ARC
8
0
10
62.9292309
20
19.692931
40
26.9579313
50
183.615208
51
186.042254
0
ARC
8
0
10
60.3233808
20
19.4182606
40
24.3376455
50
186.0449663
51
188.1200397
0
ARC
8
0
10
57.6816357
20
19.0407544
40
21.6690641
50
188.118502
51
190.205972
0
ARC
8
0
10
55.0592065
20
18.5682742
40
19.0044116
50
190.2049379
51
192.3279299
0
ARC
8
0
10
52.6031434
20
18.0313216
40
16.4903385
50
192.3272852
51
194.5027139
0
ARC
8
0
10
50.2880809
20
17.430887
40
14.0986793
50
194.496412
51
196.9743993
0
ARC
8
0
10
48.1433039
20
16.7755094
40
11.8560051
50
196.971158
51
199.6624226
0
ARC
8
0
10
46.2782882
20
16.1085913
40
9.8753328
50
199.659552
51
202.5833847
0
ARC
8
0
10
44.6812928
20
15.4433727
40
8.1453302
50
202.5769099
51
205.8825352
0
ARC
8
0
10
43.3407415
20
14.7922203
40
6.6550024
50
205.876954
51
209.5839422
0
ARC
8
0
10
42.2325088
20
14.1616032
40
5.3799118
50
209.5703825
51
213.9760128
0
ARC
8
0
10
41.3251578
20
13.5482927
40
4.2847257
50
213.955531
51
219.3579209
0
ARC
8
0
10
40.6185286
20
12.9666466
40
3.3695025
50
219.3305345
51
226.1092657
0
ARC
8
0
10
40.1095634
20
12.4348173
40
2.6333752
50
226.0675583
51
235.0256574
0
ARC
8
0
10
39.7860274
20
11.9664651
40
2.0641522
50
234.9325119
51
248.9425047
0
ARC
8
0
10
39.6853974
20
11.718032
40
1.7961586
50
249.0907328
51
270.0674565
0
LINE
8
DEFAULT_255_2_778
10
33.4863404
20
34.7265615
11
50.8496212
21
34.7265615
0
LINE
8
DEFAULT_255_2_778
10
50.8496212
20
34.7265615
11
50.8496212
21
27.2851555
0
LINE
8
DEFAULT_255_2_778
10
33.4863272
20
6.2011717
11
50.849608
21
6.2011717
0
LINE
8
DEFAULT_255_2_778
10
50.849608
20
6.2011717
11
50.849608
21
13.6425777
0
ARC
8
0
10
33.4892251
20
34.7236705
40
1.2373398
50
327.4065496
51
0.1338725
0
ARC
8
0
10
33.4896925
20
34.7231833
40
1.2366836
50
276.4510684
51
327.4139019
0
ARC
8
0
10
33.4866125
20
34.7505852
40
1.2642581
50
269.987072
51
276.450246
0
ARC
8
0
10
33.4834361
20
34.7236636
40
1.2373398
50
237.4065496
51
270.1338725
0
ARC
8
0
10
33.4829489
20
34.7231962
40
1.2366836
50
186.4510684
51
237.4139019
0
ARC
8
0
10
33.5103509
20
34.7262763
40
1.2642581
50
179.987072
51
186.450246
0
ARC
8
0
10
33.4834293
20
34.7294526
40
1.2373398
50
147.4065496
51
180.1338725
0
ARC
8
0
10
33.4829618
20
34.7299398
40
1.2366836
50
96.4510684
51
147.4139019
0
ARC
8
0
10
33.4860419
20
34.7025379
40
1.2642581
50
89.987072
51
96.450246
0
ARC
8
0
10
33.4892183
20
34.7294595
40
1.2373398
50
57.4065496
51
90.1338725
0
ARC
8
0
10
33.4897055
20
34.7299269
40
1.2366836
50
6.4510684
51
57.4139019
0
ARC
8
0
10
33.4623035
20
34.7268468
40
1.2642581
50
359.987072
51
6.450246
0
LINE
8
DEFAULT_255_2_778
10
34.7265615
20
34.7265615
11
34.7265615
21
34.7265615
0
ARC
8
0
10
33.4892263
20
6.1982812
40
1.2373386
50
327.4065316
51
0.1338455
0
ARC
8
0
10
33.4896908
20
6.197795
40
1.2366854
50
276.4511419
51
327.4139195
0
ARC
8
0
10
33.4866125
20
6.2251954
40
1.2642581
50
269.9870721
51
276.450246
0
ARC
8
0
10
33.4834365
20
6.1982719
40
1.2373379
50
237.4064742
51
270.1338543
0
ARC
8
0
10
33.4829509
20
6.1978081
40
1.2366857
50
186.4511235
51
237.4138562
0
ARC
8
0
10
33.510344
20
6.2008864
40
1.2642513
50
179.9870722
51
186.4502645
0
ARC
8
0
10
33.4834281
20
6.2040622
40
1.2373386
50
147.4065316
51
180.1338455
0
ARC
8
0
10
33.4829636
20
6.2045484
40
1.2366854
50
96.4511419
51
147.4139195
0
ARC
8
0
10
33.4860419
20
6.177148
40
1.2642581
50
89.9870721
51
96.450246
0
ARC
8
0
10
33.4892179
20
6.2040715
40
1.2373379
50
57.4064742
51
90.1338543
0
ARC
8
0
10
33.4897035
20
6.2045353
40
1.2366857
50
6.4511235
51
57.4138562
0
ARC
8
0
10
33.4623104
20
6.201457
40
1.2642513
50
359.9870722
51
6.4502645
0
LINE
8
DEFAULT_255_2_778
10
34.7265615
20
6.2011717
11
34.7265615
21
6.2011717
0
ARC
8
0
10
50.8965638
20
18.6075011
40
5.0078948
50
166.5593103
51
180.0456039
0
ARC
8
0
10
50.8208962
20
18.6229455
40
4.9307104
50
146.7407393
51
166.5294852
0
ARC
8
0
10
50.8412486
20
18.61143
40
4.9540447
50
109.9893787
51
146.7584649
0
ARC
8
0
10
50.8367596
20
18.6096018
40
4.9542306
50
94.9904854
51
109.933362
0
ARC
8
0
10
50.848885
20
18.4948309
40
5.0696215
50
89.9918291
51
95.0141684
0
ARC
8
0
10
50.8535927
20
18.5565413
40
5.0079127
50
76.5593138
51
90.0455892
0
ARC
8
0
10
50.8690394
20
18.6322294
40
4.9307079
50
56.740686
51
76.52946
0
ARC
8
0
10
50.8575201
20
18.6118732
40
4.9540475
50
19.9893426
51
56.7583984
0
ARC
8
0
10
50.8556944
20
18.6163633
40
4.9542306
50
4.9904745
51
19.9333253
0
ARC
8
0
10
50.7409442
20
18.6042379
40
5.0696012
50
359.9918309
51
5.0141771
0
ARC
8
0
10
50.8026521
20
18.5995291
40
5.0078948
50
346.5593103
51
0.0456039
0
ARC
8
0
10
50.8783197
20
18.5840847
40
4.9307104
50
326.7407393
51
346.5294852
0
ARC
8
0
10
50.8579673
20
18.5956002
40
4.9540447
50
289.9893787
51
326.7584649
0
ARC
8
0
10
50.8624564
20
18.5974284
40
4.9542306
50
274.9904854
51
289.933362
0
ARC
8
0
10
50.8503309
20
18.7121993
40
5.0696215
50
269.9918291
51
275.0141684
0
ARC
8
0
10
50.8456233
20
18.6504889
40
5.0079127
50
256.5593138
51
270.0455892
0
ARC
8
0
10
50.8301765
20
18.5748009
40
4.9307079
50
236.740686
51
256.52946
0
ARC
8
0
10
50.8416958
20
18.595157
40
4.9540475
50
199.9893426
51
236.7583984
0
ARC
8
0
10
50.8435215
20
18.590667
40
4.9542306
50
184.9904745
51
199.9333253
0
ARC
8
0
10
50.9582717
20
18.6027923
40
5.0696012
50
179.9918309
51
185.0141771
0
LINE
8
DEFAULT_255_2_778
10
45.8886706
20
18.6035151
11
45.8886706
21
18.6035151
0
LINE
8
DEFAULT_255_2_778
10
58.291014
20
17.3632808
11
50.849608
21
27.2851555
0
LINE
8
DEFAULT_255_2_778
10
50.849608
20
27.2851555
11
43.4082019
21
17.3632808
0
ENDSEC
0
EOF