0
SECTION
2
HEADER
0
ENDSEC
0
SECTION
2
TABLES
0
TABLE
2
LTYPE
0
LTYPE
72
65
70
64
2
CONTINUOUS
3
______
73
0
40
0
0
ENDTAB
0
TABLE
2
LAYER
0
LAYER
2
DEFAULT_255_2_778
70
0
62
255
6
CONTINUOUS
0
LAYER
2
DEFAULT_4_2_778
70
0
62
4
6
CONTINUOUS
0
ENDTAB
0
ENDSEC
0
SECTION
2
ENTITIES
0
ARC
8
0
10
45.8626894
20
12.3985426
40
3.7466861
50
344.2493202
51
0.0581231
0
ARC
8
0
10
45.9028644
20
12.3909434
40
3.7059585
50
316.0208521
51
344.1937911
0
ARC
8
0
10
45.8991443
20
12.3898927
40
3.7079074
50
286.5476023
51
316.0724517
0
ARC
8
0
10
45.8932131
20
12.4232501
40
3.7415743
50
270.4624272
51
286.4891817
0
ARC
8
0
10
45.8886675
20
12.516168
40
3.8345278
50
270.0000467
51
270.519141
0
ARC
8
0
10
45.8848698
20
12.4283246
40
3.7466861
50
254.2493202
51
270.0581231
0
ARC
8
0
10
45.8772706
20
12.3881496
40
3.7059585
50
226.0208521
51
254.1937911
0
ARC
8
0
10
45.8762199
20
12.3918697
40
3.7079074
50
196.5476023
51
226.0724517
0
ARC
8
0
10
45.9095773
20
12.3978009
40
3.7415743
50
180.4624272
51
196.4891817
0
ARC
8
0
10
46.0024952
20
12.4023465
40
3.8345278
50
180.0000467
51
180.519141
0
ARC
8
0
10
45.9146517
20
12.4061442
40
3.7466861
50
164.2493202
51
180.0581231
0
ARC
8
0
10
45.8744768
20
12.4137434
40
3.7059585
50
136.0208521
51
164.1937911
0
ARC
8
0
10
45.8781969
20
12.4147941
40
3.7079074
50
106.5476023
51
136.0724517
0
ARC
8
0
10
45.8841281
20
12.3814367
40
3.7415743
50
90.4624272
51
106.4891817
0
ARC
8
0
10
45.8886737
20
12.2885188
40
3.8345278
50
90.0000467
51
90.519141
0
ARC
8
0
10
45.8924714
20
12.3763623
40
3.7466861
50
74.2493202
51
90.0581231
0
ARC
8
0
10
45.9000706
20
12.4165372
40
3.7059585
50
46.0208521
51
74.1937911
0
ARC
8
0
10
45.9011213
20
12.4128171
40
3.7079074
50
16.5476023
51
46.0724517
0
ARC
8
0
10
45.8677639
20
12.4068859
40
3.7415743
50
0.4624272
51
16.4891817
0
ARC
8
0
10
45.774846
20
12.4023403
40
3.8345278
50
0.0000467
51
0.519141
0
LINE
8
DEFAULT_255_2_778
10
49.6093736
20
12.4023434
11
49.6093736
21
12.4023434
0
LINE
8
DEFAULT_255_2_778
10
52.0898423
20
13.6425777
11
45.8886706
21
6.2011717
0
LINE
8
DEFAULT_255_2_778
10
45.8886706
20
6.2011717
11
39.6874989
21
13.6425777
0
LINE
8
DEFAULT_255_2_778
10
55.8105453
20
-4.9609374
11
13.6425777
21
-4.9609374
0
LINE
8
DEFAULT_255_2_778
10
13.6425777
20
-4.9609374
11
13.6425777
21
44.6484363
0
LINE
8
DEFAULT_255_2_778
10
13.6425777
20
44.6484363
11
55.8105453
21
44.6484363
0
LINE
8
DEFAULT_255_2_778
10
55.8105453
20
44.6484363
11
55.8105453
21
-4.9609374
0
LINE
8
DEFAULT_255_2_778
10
28.5253898
20
29.7656242
11
28.5253898
21
-7.441406
0
LINE
8
DEFAULT_255_2_778
10
34.7265615
20
3.720703
11
19.8437494
21
18.6035151
0
LINE
8
DEFAULT_255_2_778
10
19.8437494
20
18.6035151
11
22.0761713
21
13.3945309
0
LINE
8
DEFAULT_255_2_778
10
22.0761713
20
13.3945309
11
25.0527337
21
16.3710933
0
LINE
8
DEFAULT_255_2_778
10
25.0527337
20
16.3710933
11
19.8437494
21
18.6035151
0
LINE
8
DEFAULT_4_2_778
10
31.0058585
20
-7.441406
11
26.0449212
21
-7.441406
0
LINE
8
DEFAULT_4_2_778
10
28.5253898
20
-7.441406
11
28.5253898
21
-9.9218747
0
ARC
8
0
10
23.5578308
20
17.6097718
40
0.9937522
50
56.3158081
51
89.6182157
0
ARC
8
0
10
23.3223342
20
17.226212
40
1.4436224
50
45.6683414
51
56.9813904
0
ARC
8
0
10
22.92437
20
16.8147977
40
2.0160133
50
37.6805104
51
45.7488885
0
ARC
8
0
10
22.3251781
20
16.3485102
40
2.775256
50
31.7233167
51
37.7377788
0
ARC
8
0
10
21.5053506
20
15.8395546
40
3.7402174
50
26.9154314
51
31.7514464
0
ARC
8
0
10
20.4416523
20
15.2973066
40
4.9341537
50
23.0225387
51
26.9386533
0
ARC
8
0
10
19.1118279
20
14.7308569
40
6.3795939
50
19.6740264
51
23.0337412
0
ARC
8
0
10
17.4966517
20
14.1517001
40
8.0954653
50
16.8194107
51
19.6851284
0
ARC
8
0
10
15.6409089
20
13.5889299
40
10.0346634
50
14.3863186
51
16.8292615
0
ARC
8
0
10
13.5404953
20
13.04942
40
12.2032593
50
12.1523166
51
14.3897293
0
ARC
8
0
10
11.2211743
20
12.54862
40
14.5760318
50
10.1599962
51
12.1575622
0
ARC
8
0
10
8.714756
20
12.0991899
40
17.1224255
50
8.2219762
51
10.1608548
0
ARC
8
0
10
5.9396239
20
11.6989686
40
19.9262684
50
6.1744087
51
8.2197909
0
ARC
8
0
10
3.0951218
20
11.3904468
40
22.787453
50
4.1120409
51
6.176397
0
ARC
8
0
10
0.4582726
20
11.2022325
40
25.4310106
50
1.4961169
51
4.1089975
0
ARC
8
0
10
-0.783239
20
11.1627447
40
26.6731309
50
359.9986062
51
1.511281
0
ARC
8
0
10
-0.4456861
20
11.1570352
40
26.3355784
50
356.9898951
51
0.01101
0
ARC
8
0
10
1.7585316
20
11.0418554
40
24.1283537
50
354.8695421
51
356.9881682
0
ARC
8
0
10
4.4887694
20
10.7955892
40
21.387032
50
352.7923083
51
354.8725732
0
ARC
8
0
10
7.3928276
20
10.4281543
40
18.4598213
50
350.7525233
51
352.7928348
0
ARC
8
0
10
10.1602759
20
9.9771796
40
15.6558691
50
348.6549387
51
350.7539398
0
ARC
8
0
10
12.722989
20
9.4620919
40
13.0419042
50
346.3770727
51
348.658862
0
ARC
8
0
10
14.9823306
20
8.9144476
40
10.7171379
50
343.9886034
51
346.3775659
0
ARC
8
0
10
16.8622773
20
8.3749908
40
8.7613226
50
341.4797657
51
343.9885157
0
ARC
8
0
10
18.5016625
20
7.8237647
40
7.0317477
50
338.3828146
51
341.495617
0
ARC
8
0
10
19.9536668
20
7.2466753
40
5.4692672
50
334.6283061
51
338.3993361
0
ARC
8
0
10
21.145276
20
6.6800429
40
4.1497969
50
330.0771124
51
334.6474687
0
ARC
8
0
10
22.0698057
20
6.1462437
40
3.0822322
50
324.4304818
51
330.1041702
0
ARC
8
0
10
22.7511884
20
5.6568523
40
2.243315
50
317.117572
51
324.4744705
0
ARC
8
0
10
23.2151331
20
5.2233572
40
1.6083682
50
307.1322639
51
317.1863858
0
ARC
8
0
10
23.4887243
20
4.8569036
40
1.1510641
50
291.0328248
51
307.2862387
0
ARC
8
0
10
23.5646591
20
4.6708801
40
0.9501901
50
269.9875424
51
290.7849161
0
ARC
8
0
10
33.4929489
20
17.6097718
40
0.9937522
50
90.3817843
51
123.6841919
0
ARC
8
0
10
33.7284454
20
17.226212
40
1.4436224
50
123.0186096
51
134.3316586
0
ARC
8
0
10
34.1264097
20
16.8147977
40
2.0160133
50
134.2511115
51
142.3194896
0
ARC
8
0
10
34.7256016
20
16.3485102
40
2.775256
50
142.2622212
51
148.2766833
0
ARC
8
0
10
35.5454291
20
15.8395546
40
3.7402174
50
148.2485536
51
153.0845686
0
ARC
8
0
10
36.6091274
20
15.2973066
40
4.9341537
50
153.0613467
51
156.9774613
0
ARC
8
0
10
37.9389518
20
14.7308569
40
6.3795939
50
156.9662588
51
160.3259736
0
ARC
8
0
10
39.554128
20
14.1517001
40
8.0954653
50
160.3148716
51
163.1805893
0
ARC
8
0
10
41.4098708
20
13.5889299
40
10.0346634
50
163.1707385
51
165.6136814
0
ARC
8
0
10
43.5102844
20
13.04942
40
12.2032593
50
165.6102707
51
167.8476834
0
ARC
8
0
10
45.8296053
20
12.54862
40
14.5760318
50
167.8424378
51
169.8400038
0
ARC
8
0
10
48.3360236
20
12.0991899
40
17.1224255
50
169.8391452
51
171.7780238
0
ARC
8
0
10
51.1111557
20
11.6989686
40
19.9262684
50
171.7802091
51
173.8255913
0
ARC
8
0
10
53.9556579
20
11.3904468
40
22.787453
50
173.823603
51
175.8879591
0
ARC
8
0
10
56.5925071
20
11.2022325
40
25.4310106
50
175.8910025
51
178.5038831
0
ARC
8
0
10
57.8340187
20
11.1627447
40
26.6731309
50
178.488719
51
180.0013938
0
ARC
8
0
10
57.4964657
20
11.1570352
40
26.3355784
50
179.98899
51
183.0101049
0
ARC
8
0
10
55.2922481
20
11.0418554
40
24.1283537
50
183.0118318
51
185.1304579
0
ARC
8
0
10
52.5620102
20
10.7955892
40
21.387032
50
185.1274268
51
187.2076917
0
ARC
8
0
10
49.657952
20
10.4281543
40
18.4598213
50
187.2071652
51
189.2474767
0
ARC
8
0
10
46.8905037
20
9.9771796
40
15.6558691
50
189.2460602
51
191.3450613
0
ARC
8
0
10
44.3277907
20
9.4620919
40
13.0419042
50
191.341138
51
193.6229273
0
ARC
8
0
10
42.068449
20
8.9144476
40
10.7171379
50
193.6224341
51
196.0113966
0
ARC
8
0
10
40.1885023
20
8.3749908
40
8.7613226
50
196.0114843
51
198.5202343
0
ARC
8
0
10
38.5491171
20
7.8237647
40
7.0317477
50
198.504383
51
201.6171854
0
ARC
8
0
10
37.0971128
20
7.2466753
40
5.4692672
50
201.6006639
51
205.3716939
0
ARC
8
0
10
35.9055037
20
6.6800429
40
4.1497969
50
205.3525313
51
209.9228876
0
ARC
8
0
10
34.980974
20
6.1462437
40
3.0822322
50
209.8958298
51
215.5695182
0
ARC
8
0
10
34.2995912
20
5.6568523
40
2.243315
50
215.5255295
51
222.882428
0
ARC
8
0
10
33.8356466
20
5.2233572
40
1.6083682
50
222.8136142
51
232.8677361
0
ARC
8
0
10
33.5620554
20
4.8569036
40
1.1510641
50
232.7137613
51
248.9671752
0
ARC
8
0
10
33.4861206
20
4.6708801
40
0.9501901
50
249.2150839
51
270.0124576
0
LINE
8
DEFAULT_255_2_778
10
28.5253898
20
22.3242049
11
45.8886706
21
22.3242049
0
LINE
8
DEFAULT_255_2_778
10
45.8886706
20
22.3242049
11
45.8886706
21
16.1230332
0
LINE
8
DEFAULT_255_2_778
10
28.5253898
20
-0.0000132
11
45.8886706
21
-0.0000132
0
LINE
8
DEFAULT_255_2_778
10
45.8886706
20
-0.0000132
11
45.8886706
21
6.2011585
0
ARC
8
0
10
28.528289
20
22.3213277
40
1.2373386
50
327.4065316
51
0.1338455
0
ARC
8
0
10
28.5287534
20
22.3208414
40
1.2366854
50
276.4511419
51
327.4139195
0
ARC
8
0
10
28.5256751
20
22.3482418
40
1.2642581
50
269.9870721
51
276.450246
0
ARC
8
0
10
28.5224992
20
22.3213183
40
1.2373379
50
237.4064742
51
270.1338543
0
ARC
8
0
10
28.5220135
20
22.3208546
40
1.2366857
50
186.4511235
51
237.4138562
0
ARC
8
0
10
28.5494067
20
22.3239329
40
1.2642513
50
179.9870722
51
186.4502645
0
ARC
8
0
10
28.5224907
20
22.3271086
40
1.2373386
50
147.4065316
51
180.1338455
0
ARC
8
0
10
28.5220263
20
22.3275948
40
1.2366854
50
96.4511419
51
147.4139195
0
ARC
8
0
10
28.5251046
20
22.3001944
40
1.2642581
50
89.9870721
51
96.450246
0
ARC
8
0
10
28.5282805
20
22.327118
40
1.2373379
50
57.4064742
51
90.1338543
0
ARC
8
0
10
28.5287661
20
22.3275817
40
1.2366857
50
6.4511235
51
57.4138562
0
ARC
8
0
10
28.501373
20
22.3245034
40
1.2642513
50
359.9870722
51
6.4502645
0
LINE
8
DEFAULT_255_2_778
10
29.7656242
20
22.3242181
11
29.7656242
21
22.3242181
0
ARC
8
0
10
28.528289
20
-0.0028905
40
1.2373386
50
327.4065316
51
0.1338455
0
ARC
8
0
10
28.5287534
20
-0.0033767
40
1.2366854
50
276.4511419
51
327.4139195
0
ARC
8
0
10
28.5256751
20
0.0240237
40
1.2642581
50
269.9870721
51
276.450246
0
ARC
8
0
10
28.5224992
20
-0.0028998
40
1.2373379
50
237.4064742
51
270.1338543
0
ARC
8
0
10
28.5220135
20
-0.0033636
40
1.2366857
50
186.4511235
51
237.4138562
0
ARC
8
0
10
28.5494067
20
-0.0002853
40
1.2642513
50
179.9870722
51
186.4502645
0
ARC
8
0
10
28.5224907
20
0.0028905
40
1.2373386
50
147.4065316
51
180.1338455
0
ARC
8
0
10
28.5220263
20
0.0033767
40
1.2366854
50
96.4511419
51
147.4139195
0
ARC
8
0
10
28.5251046
20
-0.0240237
40
1.2642581
50
89.9870721
51
96.450246
0
ARC
8
0
10
28.5282805
20
0.0028998
40
1.2373379
50
57.4064742
51
90.1338543
0
ARC
8
0
10
28.5287661
20
0.0033636
40
1.2366857
50
6.4511235
51
57.4138562
0
ARC
8
0
10
28.501373
20
0.0002853
40
1.2642513
50
359.9870722
51
6.4502645
0
LINE
8
DEFAULT_255_2_778
10
29.7656242
20
0
11
29.7656242
21
0
0
LINE
8
DEFAULT_255_2_778
10
28.5253898
20
39.6875055
11
28.5253898
21
47.7490287
0
LINE
8
DEFAULT_255_2_778
10
63.2519514
20
34.7265615
11
35.9667959
21
34.7265615
0
LINE
8
DEFAULT_4_2_778
10
63.2519514
20
32.2460929
11
63.2519514
21
37.2070302
0
LINE
8
DEFAULT_4_2_778
10
65.73242
20
34.7265615
11
63.2519514
21
34.7265615
0
LINE
8
DEFAULT_255_2_778
10
35.9667959
20
27.2851555
11
21.0839838
21
27.2851555
0
LINE
8
DEFAULT_255_2_778
10
21.0839838
20
27.2851555
11
21.0839838
21
42.1679676
0
LINE
8
DEFAULT_255_2_778
10
21.0839838
20
42.1679676
11
35.9667959
21
42.1679676
0
LINE
8
DEFAULT_255_2_778
10
35.9667959
20
42.1679676
11
35.9667959
21
27.2851555
0
ARC
8
0
10
28.4994142
20
35.9629951
40
3.7466806
50
344.2493073
51
0.0581226
0
ARC
8
0
10
28.5395827
20
35.9553974
40
3.7059597
50
316.0208536
51
344.1937828
0
ARC
8
0
10
28.5358625
20
35.9543462
40
3.7079083
50
286.5476144
51
316.0724608
0
ARC
8
0
10
28.5299331
20
35.9876926
40
3.7415644
50
270.4624164
51
286.489214
0
ARC
8
0
10
28.5253867
20
36.0806205
40
3.8345278
50
270.0000467
51
270.519141
0
ARC
8
0
10
28.5215884
20
35.9927612
40
3.7466703
50
254.2492745
51
270.0581336
0
ARC
8
0
10
28.5140036
20
35.952627
40
3.7059859
50
225.9852911
51
254.1937006
0
ARC
8
0
10
28.5129137
20
35.9563099
40
3.7078788
50
196.5346264
51
226.0369459
0
ARC
8
0
10
28.5463332
20
35.9622587
40
3.7416112
50
180.4620845
51
196.476312
0
ARC
8
0
10
28.6331484
20
35.9667549
40
3.8284616
50
179.9993871
51
180.5188931
0
ARC
8
0
10
28.5513552
20
35.9705973
40
3.7466703
50
164.2492745
51
180.0581336
0
ARC
8
0
10
28.5112209
20
35.9781821
40
3.7059859
50
135.9852911
51
164.1937006
0
ARC
8
0
10
28.5149038
20
35.979272
40
3.7078788
50
106.5346264
51
136.0369459
0
ARC
8
0
10
28.5208527
20
35.9458525
40
3.7416112
50
90.4620845
51
106.476312
0
ARC
8
0
10
28.5253489
20
35.8590373
40
3.8284616
50
89.9993871
51
90.5188931
0
ARC
8
0
10
28.5291913
20
35.940825
40
3.7466758
50
74.2492873
51
90.0581341
0
ARC
8
0
10
28.5367898
20
35.9809912
40
3.7059569
50
46.0208274
51
74.1937836
0
ARC
8
0
10
28.5378378
20
35.9772672
40
3.7079104
50
16.5476145
51
46.072439
0
ARC
8
0
10
28.5044885
20
35.9713383
40
3.741569
50
0.4624281
51
16.4891949
0
ARC
8
0
10
28.411569
20
35.9667927
40
3.8345241
50
0.0000467
51
0.519141
0
LINE
8
DEFAULT_255_2_778
10
32.2460929
20
35.9667959
11
32.2460929
21
35.9667959
0
LINE
8
DEFAULT_255_2_778
10
34.7265615
20
37.2070302
11
28.5253898
21
29.7656242
0
LINE
8
DEFAULT_255_2_778
10
28.5253898
20
29.7656242
11
22.3242181
21
37.2070302
0
LINE
8
DEFAULT_4_2_778
10
31.0058585
20
47.1289049
11
26.0449212
21
47.1289049
0
LINE
8
DEFAULT_4_2_778
10
28.5253898
20
49.6093736
11
28.5253898
21
47.1289049
0
ENDSEC
0
EOF