0
SECTION
2
HEADER
0
ENDSEC
0
SECTION
2
TABLES
0
TABLE
2
LTYPE
0
LTYPE
72
65
70
64
2
CONTINUOUS
3
______
73
0
40
0
0
ENDTAB
0
TABLE
2
LAYER
0
LAYER
2
DEFAULT_255_2_778
70
0
62
255
6
CONTINUOUS
0
LAYER
2
DEFAULT_4_2_778
70
0
62
4
6
CONTINUOUS
0
ENDTAB
0
ENDSEC
0
SECTION
2
ENTITIES
0
LINE
8
DEFAULT_255_2_778
10
26.0449344
20
-0.0000132
11
69.4531363
21
-0.0000132
0
LINE
8
DEFAULT_255_2_778
10
69.4531363
20
-0.0000132
11
69.4531363
21
-18.6035283
0
LINE
8
DEFAULT_255_2_778
10
69.4531363
20
-18.6035283
11
26.0449344
21
-18.6035283
0
LINE
8
DEFAULT_255_2_778
10
26.0449344
20
-18.6035283
11
26.0449344
21
-0.0000132
0
LINE
8
DEFAULT_255_2_778
10
57.0507929
20
-0.0000132
11
60.7714959
21
-0.0000132
0
LINE
8
DEFAULT_255_2_778
10
60.7714959
20
-0.0000132
11
60.7714959
21
-18.6035283
0
LINE
8
DEFAULT_255_2_778
10
60.7714959
20
-18.6035283
11
57.0507929
21
-18.6035283
0
LINE
8
DEFAULT_255_2_778
10
57.0507929
20
-18.6035283
11
57.0507929
21
-0.0000132
0
LINE
8
DEFAULT_255_2_778
10
26.0449212
20
-9.3017576
11
27.983407
21
-18.6035151
0
LINE
8
DEFAULT_255_2_778
10
27.983407
20
-18.6035151
11
31.8591393
21
0
0
LINE
8
DEFAULT_255_2_778
10
31.8591393
20
0
11
35.7348696
21
-18.6035151
0
LINE
8
DEFAULT_255_2_778
10
35.7348696
20
-18.6035151
11
39.6106019
21
0
0
LINE
8
DEFAULT_255_2_778
10
39.6106019
20
0
11
43.4863343
21
-18.6035151
0
LINE
8
DEFAULT_255_2_778
10
43.4863343
20
-18.6035151
11
47.3620666
21
0
0
LINE
8
DEFAULT_255_2_778
10
47.3620666
20
0
11
51.2377989
21
-18.6035151
0
LINE
8
DEFAULT_255_2_778
10
51.2377989
20
-18.6035151
11
55.1135312
21
0
0
LINE
8
DEFAULT_255_2_778
10
55.1135312
20
0
11
57.0507797
21
-9.3017576
0
LINE
8
DEFAULT_255_2_778
10
65.73242
20
9.9218747
11
13.6425777
21
9.9218747
0
LINE
8
DEFAULT_255_2_778
10
13.6425777
20
9.9218747
11
13.6425777
21
-17.3632808
0
LINE
8
DEFAULT_255_2_778
10
65.73242
20
21.0839838
11
65.73242
21
0
0
LINE
8
DEFAULT_255_2_778
10
65.73242
20
-3.1005925
11
63.2519514
21
-0.0000066
0
LINE
8
DEFAULT_255_2_778
10
63.2519514
20
-0.0000066
11
68.2128887
21
-0.0000066
0
LINE
8
DEFAULT_255_2_778
10
68.2128887
20
-0.0000066
11
65.73242
21
-3.1005925
0
LINE
8
DEFAULT_255_2_778
10
22.3242181
20
-6.2011849
11
57.0507797
21
-6.2011849
0
LINE
8
DEFAULT_255_2_778
10
57.0507797
20
-6.2011849
11
57.0507797
21
-11.1621223
0
LINE
8
DEFAULT_255_2_778
10
57.0507797
20
-11.1621223
11
22.3242181
21
-11.1621223
0
LINE
8
DEFAULT_255_2_778
10
22.3242181
20
-11.1621223
11
22.3242181
21
-6.2011849
0
LINE
8
DEFAULT_255_2_778
10
33.4863272
20
9.9218615
11
31.0058585
21
6.8212756
0
LINE
8
DEFAULT_255_2_778
10
31.0058585
20
6.8212756
11
35.9667959
21
6.8212756
0
LINE
8
DEFAULT_255_2_778
10
35.9667959
20
6.8212756
11
33.4863272
21
9.9218615
0
LINE
8
DEFAULT_4_2_778
10
63.2519514
20
21.0839838
11
68.2128887
21
21.0839838
0
LINE
8
DEFAULT_4_2_778
10
65.73242
20
23.5644525
11
65.73242
21
21.0839838
0
LINE
8
DEFAULT_255_2_778
10
9.9218747
20
-17.363294
11
22.3242181
21
-17.363294
0
LINE
8
DEFAULT_255_2_778
10
22.3242181
20
-17.363294
11
22.3242181
21
-1.2402476
0
LINE
8
DEFAULT_255_2_778
10
22.3242181
20
-1.2402476
11
9.9218747
21
-1.2402476
0
LINE
8
DEFAULT_255_2_778
10
13.6425777
20
-1.2402343
11
12.4023434
21
-6.2011717
0
LINE
8
DEFAULT_255_2_778
10
12.4023434
20
-6.2011717
11
14.8828121
21
-6.2011717
0
LINE
8
DEFAULT_255_2_778
10
14.8828121
20
-6.2011717
11
13.6425777
21
-1.2402343
0
LINE
8
DEFAULT_255_2_778
10
13.6425777
20
-17.3632808
11
12.4023434
21
-12.4023434
0
LINE
8
DEFAULT_255_2_778
10
12.4023434
20
-12.4023434
11
14.8828121
21
-12.4023434
0
LINE
8
DEFAULT_255_2_778
10
14.8828121
20
-12.4023434
11
13.6425777
21
-17.3632808
0
LINE
8
DEFAULT_255_2_778
10
33.4863272
20
6.8212823
11
33.4863272
21
-0.0000066
0
ENDSEC
0
EOF