0
SECTION
2
HEADER
0
ENDSEC
0
SECTION
2
TABLES
0
TABLE
2
LTYPE
0
LTYPE
72
65
70
64
2
CONTINUOUS
3
______
73
0
40
0
0
ENDTAB
0
TABLE
2
LAYER
0
LAYER
2
DEFAULT_255_2_778
70
0
62
255
6
CONTINUOUS
0
LAYER
2
DEFAULT_4_2_778
70
0
62
4
6
CONTINUOUS
0
ENDTAB
0
ENDSEC
0
SECTION
2
ENTITIES
0
LINE
8
DEFAULT_255_2_778
10
26.0449344
20
5.5810545
11
69.4531363
21
5.5810545
0
LINE
8
DEFAULT_255_2_778
10
69.4531363
20
5.5810545
11
69.4531363
21
-13.0224606
0
LINE
8
DEFAULT_255_2_778
10
69.4531363
20
-13.0224606
11
26.0449344
21
-13.0224606
0
LINE
8
DEFAULT_255_2_778
10
26.0449344
20
-13.0224606
11
26.0449344
21
5.5810545
0
LINE
8
DEFAULT_255_2_778
10
37.2070434
20
5.5810545
11
40.9277465
21
5.5810545
0
LINE
8
DEFAULT_255_2_778
10
40.9277465
20
5.5810545
11
40.9277465
21
-13.0224606
0
LINE
8
DEFAULT_255_2_778
10
40.9277465
20
-13.0224606
11
37.2070434
21
-13.0224606
0
LINE
8
DEFAULT_255_2_778
10
37.2070434
20
-13.0224606
11
37.2070434
21
5.5810545
0
LINE
8
DEFAULT_255_2_778
10
40.9277207
20
-3.7207163
11
42.8252833
21
-13.0224738
0
LINE
8
DEFAULT_255_2_778
10
42.8252833
20
-13.0224738
11
46.6241187
21
5.5810413
0
LINE
8
DEFAULT_255_2_778
10
46.6241187
20
5.5810413
11
50.422954
21
-13.0224738
0
LINE
8
DEFAULT_255_2_778
10
50.422954
20
-13.0224738
11
54.2217934
21
5.5810413
0
LINE
8
DEFAULT_255_2_778
10
54.2217934
20
5.5810413
11
58.0193894
21
-13.0224738
0
LINE
8
DEFAULT_255_2_778
10
58.0193894
20
-13.0224738
11
61.8182288
21
5.5810413
0
LINE
8
DEFAULT_255_2_778
10
61.8182288
20
5.5810413
11
65.6170641
21
-13.0224738
0
LINE
8
DEFAULT_255_2_778
10
65.6170641
20
-13.0224738
11
69.4146601
21
5.5810413
0
LINE
8
DEFAULT_255_2_778
10
33.4850752
20
15.502916
11
13.6413268
21
15.502916
0
LINE
8
DEFAULT_255_2_778
10
13.6413268
20
15.502916
11
13.6413268
21
-16.7431768
0
LINE
8
DEFAULT_255_2_778
10
65.73242
20
12.40235
11
65.73242
21
5.5810611
0
LINE
8
DEFAULT_255_2_778
10
33.4863272
20
2.4804753
11
31.0058585
21
5.5810611
0
LINE
8
DEFAULT_255_2_778
10
31.0058585
20
5.5810611
11
35.9667959
21
5.5810611
0
LINE
8
DEFAULT_255_2_778
10
35.9667959
20
5.5810611
11
33.4863272
21
2.4804753
0
LINE
8
DEFAULT_255_2_778
10
22.3242314
20
-0.6201172
11
37.2070434
21
-0.6201172
0
LINE
8
DEFAULT_255_2_778
10
37.2070434
20
-0.6201172
11
37.2070434
21
-5.5810545
0
LINE
8
DEFAULT_255_2_778
10
37.2070434
20
-5.5810545
11
22.3242314
21
-5.5810545
0
LINE
8
DEFAULT_255_2_778
10
22.3242314
20
-5.5810545
11
22.3242314
21
-0.6201172
0
LINE
8
DEFAULT_255_2_778
10
65.7324333
20
15.5029293
11
63.2519646
21
12.4023434
0
LINE
8
DEFAULT_255_2_778
10
63.2519646
20
12.4023434
11
68.212902
21
12.4023434
0
LINE
8
DEFAULT_255_2_778
10
68.212902
20
12.4023434
11
65.7324333
21
15.5029293
0
LINE
8
DEFAULT_255_2_778
10
9.9218747
20
-11.7822262
11
22.3242181
21
-11.7822262
0
LINE
8
DEFAULT_255_2_778
10
22.3242181
20
-11.7822262
11
22.3242181
21
4.3408202
0
LINE
8
DEFAULT_255_2_778
10
22.3242181
20
4.3408202
11
9.9218747
21
4.3408202
0
LINE
8
DEFAULT_255_2_778
10
13.6425777
20
-11.7822262
11
12.4023434
21
-16.7431636
0
LINE
8
DEFAULT_255_2_778
10
12.4023434
20
-16.7431636
11
14.8828121
21
-16.7431636
0
LINE
8
DEFAULT_255_2_778
10
14.8828121
20
-16.7431636
11
13.6425777
21
-11.7822262
0
LINE
8
DEFAULT_255_2_778
10
13.6425777
20
4.340807
11
12.4023434
21
9.3017443
0
LINE
8
DEFAULT_255_2_778
10
12.4023434
20
9.3017443
11
14.8828121
21
9.3017443
0
LINE
8
DEFAULT_255_2_778
10
14.8828121
20
9.3017443
11
13.6425777
21
4.340807
0
LINE
8
DEFAULT_255_2_778
10
33.4863272
20
26.6650383
11
33.4863272
21
5.5810545
0
LINE
8
DEFAULT_4_2_778
10
31.0058585
20
26.6650251
11
35.9667959
21
26.6650251
0
LINE
8
DEFAULT_4_2_778
10
33.4863272
20
29.1454938
11
33.4863272
21
26.6650251
0
ENDSEC
0
EOF