0
SECTION
2
HEADER
0
ENDSEC
0
SECTION
2
TABLES
0
TABLE
2
LTYPE
0
LTYPE
72
65
70
64
2
CONTINUOUS
3
______
73
0
40
0
0
ENDTAB
0
TABLE
2
LAYER
0
LAYER
2
DEFAULT_255_2_778
70
0
62
255
6
CONTINUOUS
0
ENDTAB
0
ENDSEC
0
SECTION
2
ENTITIES
0
LINE
8
0
10
26.6650383
20
54.4927881
11
26.6650383
21
29.0679841
0
LINE
8
0
10
26.6650383
20
29.0679841
11
36.586913
21
29.0679841
0
ARC
8
0
10
48.2207661
20
28.7056151
40
11.6394951
50
174.6946749
51
178.2159389
0
ARC
8
0
10
45.8735636
20
28.9257047
40
9.2819979
50
170.4981994
51
174.7077433
0
ARC
8
0
10
43.9896506
20
29.2422258
40
7.3716806
50
165.6126505
51
170.5074087
0
ARC
8
0
10
42.5134322
20
29.6230902
40
5.847124
50
159.5932462
51
165.6333742
0
ARC
8
0
10
41.3561068
20
30.0572987
40
4.6110317
50
151.5311469
51
159.6357274
0
ARC
8
0
10
40.5195275
20
30.5147944
40
3.6575368
50
140.0649184
51
151.5842864
0
ARC
8
0
10
40.1110288
20
30.8505917
40
3.12876
50
106.8610435
51
139.9780601
0
ARC
8
0
10
40.3891704
20
30.022105
40
4.00239
50
97.4398671
51
107.2315383
0
ARC
8
0
10
40.5140588
20
29.1436857
40
4.8895957
50
92.4197937
51
97.5581516
0
ARC
8
0
10
40.115913
20
29.3286117
40
4.7042175
50
79.8340874
51
87.6644752
0
ARC
8
0
10
40.2910785
20
30.2861648
40
3.7307821
50
68.8391985
51
79.8864288
0
ARC
8
0
10
40.5114849
20
30.8525857
40
3.1229908
50
35.319937
51
68.8589063
0
ARC
8
0
10
39.8604128
20
30.3666655
40
3.9352062
50
25.5377354
51
35.6121274
0
ARC
8
0
10
38.9105608
20
29.9087297
40
4.9896791
50
18.1440359
51
25.5803336
0
ARC
8
0
10
37.5974136
20
29.4751318
40
6.3725583
50
12.3045021
51
18.1720425
0
ARC
8
0
10
35.9559386
20
29.1122677
40
8.0536572
50
7.8803933
51
12.3380713
0
ARC
8
0
10
33.9376295
20
28.8320806
40
10.0913214
50
3.9398934
51
7.8850474
0
ARC
8
0
10
31.9113893
20
28.6823538
40
12.1230648
50
1.8228656
51
3.987865
0
LINE
8
0
10
44.0283191
20
29.0679841
11
52.7099595
21
29.0679841
0
LINE
8
0
10
52.7099595
20
29.0679841
11
52.7099595
21
3.9532387
0
LINE
8
DEFAULT_255_2_778
10
23.5644525
20
51.3922121
11
29.7656242
21
51.3922121
0
LINE
8
DEFAULT_255_2_778
10
49.6093736
20
6.7437759
11
55.8105453
21
6.7437759
0
LINE
8
DEFAULT_255_2_778
10
26.6650383
20
51.5472414
11
26.6650383
21
54.492798
0
LINE
8
DEFAULT_255_2_778
10
52.7099595
20
3.64319
11
52.7099595
21
6.7437759
0
ENDSEC
0
EOF