0
SECTION
2
HEADER
0
ENDSEC
0
SECTION
2
TABLES
0
TABLE
2
LTYPE
0
LTYPE
72
65
70
64
2
CONTINUOUS
3
______
73
0
40
0
0
ENDTAB
0
TABLE
2
LAYER
0
LAYER
2
DEFAULT_255_2_778
70
0
62
255
6
CONTINUOUS
0
ENDTAB
0
ENDSEC
0
SECTION
2
ENTITIES
0
ARC
8
0
10
26.2909587
20
19.1678014
40
12.3863047
50
84.9832638
51
88.2693431
0
ARC
8
0
10
26.5065595
20
21.6140748
40
9.9305489
50
81.2775733
51
84.9882042
0
ARC
8
0
10
26.8219149
20
23.6472269
40
7.8730888
50
76.5597087
51
81.3022099
0
ARC
8
0
10
27.2253695
20
25.3250819
40
6.1474105
50
70.7064881
51
76.5822445
0
ARC
8
0
10
27.6711212
20
26.5935684
40
4.8028849
50
63.5306107
51
70.7255766
0
ARC
8
0
10
28.1363101
20
27.5191027
40
3.7670301
50
53.4082371
51
63.5898612
0
ARC
8
0
10
28.5870899
20
28.1170857
40
3.0181985
50
35.2712205
51
53.5120624
0
ARC
8
0
10
28.5927965
20
28.1453671
40
2.9972738
50
16.0548548
51
34.8928269
0
ARC
8
0
10
27.8960297
20
27.9378084
40
3.724273
50
5.8727243
51
16.1589646
0
ARC
8
0
10
26.9866991
20
27.8357313
40
4.6392836
50
359.9014676
51
5.9776956
0
ARC
8
0
10
27.1185369
20
27.8145973
40
4.507458
50
352.1056055
51
0.1672277
0
ARC
8
0
10
28.0807113
20
27.6780638
40
3.5356511
50
340.9276646
51
352.1556332
0
ARC
8
0
10
28.6452112
20
27.4817876
40
2.9380031
50
306.5052567
51
340.9480448
0
ARC
8
0
10
28.1513702
20
28.1125698
40
3.7388745
50
296.8096235
51
306.8378025
0
ARC
8
0
10
27.6908052
20
29.0153617
40
4.7523544
50
289.524247
51
296.8563405
0
ARC
8
0
10
27.243262
20
30.2701636
40
6.0845773
50
283.648776
51
289.5472945
0
ARC
8
0
10
26.8393771
20
31.9203802
40
7.7834976
50
278.9147857
51
283.671439
0
ARC
8
0
10
26.5150552
20
33.9676119
40
9.8562577
50
275.0541812
51
278.9331206
0
ARC
8
0
10
26.2926255
20
36.4584028
40
12.3569596
50
271.7540787
51
275.0640661
0
ARC
8
0
10
26.2399865
20
37.7106012
40
13.61019
50
271.7896619
51
271.8142152
0
LINE
8
0
10
26.6650383
20
24.10705
11
26.6650383
21
6.1236521
0
LINE
8
0
10
26.6650383
20
6.1236521
11
52.7099595
21
6.1236521
0
LINE
8
DEFAULT_255_2_778
10
26.6650383
20
48.9117368
11
26.6650383
21
31.5484561
0
LINE
8
DEFAULT_255_2_778
10
23.5644657
20
49.531854
11
29.7656374
21
49.531854
0
LINE
8
DEFAULT_255_2_778
10
26.6650515
20
49.6868833
11
26.6650515
21
52.6324399
0
LINE
8
DEFAULT_255_2_778
10
52.7099727
20
3.0230596
11
52.7099727
21
9.2242313
0
LINE
8
DEFAULT_255_2_778
10
55.8105387
20
6.1236455
11
52.7099529
21
6.1236455
0
ENDSEC
0
EOF