0
SECTION
2
HEADER
0
ENDSEC
0
SECTION
2
TABLES
0
TABLE
2
LTYPE
0
LTYPE
72
65
70
64
2
CONTINUOUS
3
______
73
0
40
0
0
ENDTAB
0
TABLE
2
LAYER
0
LAYER
2
DEFAULT_255_2_778
70
0
62
255
6
CONTINUOUS
0
LAYER
2
DEFAULT_4_2_778
70
0
62
4
6
CONTINUOUS
0
ENDTAB
0
ENDSEC
0
SECTION
2
ENTITIES
0
ARC
8
0
10
44.5017593
20
42.1723292
40
6.3478502
50
359.9606322
51
5.8698208
0
ARC
8
0
10
44.9128457
20
42.2144562
40
5.9346109
50
5.871125
51
12.9423701
0
ARC
8
0
10
45.1252843
20
42.2620214
40
5.7169161
50
12.954629
51
22.5498544
0
ARC
8
0
10
44.7867927
20
42.0929644
40
6.0944168
50
22.7973436
51
42.0322675
0
ARC
8
0
10
43.8622924
20
41.2998143
40
7.3122198
50
41.7982026
51
49.4993408
0
ARC
8
0
10
43.1267845
20
40.4431903
40
8.4412766
50
49.479393
51
55.6141018
0
ARC
8
0
10
42.4258135
20
39.4232173
40
9.6788954
50
55.5996925
51
60.7051034
0
ARC
8
0
10
41.7652662
20
38.2474241
40
11.0275287
50
60.7012038
51
65.3907052
0
ARC
8
0
10
41.1487547
20
36.9029633
40
12.5066031
50
65.3877667
51
69.8025198
0
ARC
8
0
10
40.6019322
20
35.4173595
40
14.0896488
50
69.8013715
51
74.1269996
0
ARC
8
0
10
40.1593617
20
33.8632697
40
15.7055273
50
74.1246554
51
78.4287642
0
ARC
8
0
10
39.8548618
20
32.3795625
40
17.2201581
50
78.4264347
51
82.9313316
0
ARC
8
0
10
39.6950788
20
31.0627803
40
18.5465949
50
82.9420609
51
90.0234165
0
ARC
8
0
10
39.6800379
20
31.059795
40
18.5495801
50
89.9769545
51
97.0210237
0
ARC
8
0
10
39.5240214
20
32.3546284
40
17.2453862
50
97.0324045
51
101.4490593
0
ARC
8
0
10
39.2268792
20
33.8169521
40
15.7531786
50
101.4455559
51
105.7424755
0
ARC
8
0
10
38.7933776
20
35.3540295
40
14.1561406
50
105.741623
51
109.9757521
0
ARC
8
0
10
38.2693092
20
36.7965229
40
12.6213981
50
109.9768827
51
114.1748152
0
ARC
8
0
10
37.6628771
20
38.1427325
40
11.1449035
50
114.164813
51
118.9706194
0
ARC
8
0
10
36.986453
20
39.3633295
40
9.7494085
50
118.9672561
51
124.1661867
0
ARC
8
0
10
36.2748908
20
40.4083437
40
8.4851414
50
124.1534902
51
130.3025352
0
ARC
8
0
10
35.5311818
20
41.2810408
40
7.3385401
50
130.2814473
51
138.0379185
0
ARC
8
0
10
34.5507117
20
42.120102
40
6.0485291
50
137.737967
51
159.439346
0
ARC
8
0
10
34.2700886
20
42.2557651
40
5.7382072
50
159.7235896
51
168.562232
0
ARC
8
0
10
34.5221049
20
42.2053434
40
5.9952174
50
168.5675391
51
175.096741
0
ARC
8
0
10
34.91231
20
42.1711056
40
6.386921
50
175.0899209
51
180.0281508
0
ARC
8
0
10
34.8732385
20
14.8784505
40
6.3478502
50
179.9606322
51
185.8698208
0
ARC
8
0
10
34.4621521
20
14.8363235
40
5.9346109
50
185.871125
51
192.9423701
0
ARC
8
0
10
34.2497135
20
14.7887582
40
5.7169161
50
192.954629
51
202.5498544
0
ARC
8
0
10
34.5882051
20
14.9578152
40
6.0944168
50
202.7973436
51
222.0322675
0
ARC
8
0
10
35.5127054
20
15.7509654
40
7.3122198
50
221.7982026
51
229.4993408
0
ARC
8
0
10
36.2482133
20
16.6075893
40
8.4412766
50
229.479393
51
235.6141018
0
ARC
8
0
10
36.9491843
20
17.6275624
40
9.6788954
50
235.5996925
51
240.7051034
0
ARC
8
0
10
37.6097316
20
18.8033556
40
11.0275287
50
240.7012038
51
245.3907052
0
ARC
8
0
10
38.2262431
20
20.1478163
40
12.5066031
50
245.3877667
51
249.8025198
0
ARC
8
0
10
38.7730656
20
21.6334202
40
14.0896488
50
249.8013715
51
254.1269996
0
ARC
8
0
10
39.2156361
20
23.1875099
40
15.7055273
50
254.1246554
51
258.4287642
0
ARC
8
0
10
39.5201359
20
24.6712172
40
17.2201581
50
258.4264347
51
262.9313316
0
ARC
8
0
10
39.679919
20
25.9879994
40
18.5465949
50
262.9420609
51
270.0234165
0
ARC
8
0
10
39.6949599
20
25.9909847
40
18.5495801
50
269.9769545
51
277.0210237
0
ARC
8
0
10
39.8509764
20
24.6961513
40
17.2453862
50
277.0324045
51
281.4490593
0
ARC
8
0
10
40.1481186
20
23.2338275
40
15.7531786
50
281.4455559
51
285.7424755
0
ARC
8
0
10
40.5816202
20
21.6967501
40
14.1561406
50
285.741623
51
289.9757521
0
ARC
8
0
10
41.1056886
20
20.2542568
40
12.6213981
50
289.9768827
51
294.1748152
0
ARC
8
0
10
41.7121207
20
18.9080471
40
11.1449035
50
294.164813
51
298.9706194
0
ARC
8
0
10
42.3885448
20
17.6874502
40
9.7494085
50
298.9672561
51
304.1661867
0
ARC
8
0
10
43.100107
20
16.642436
40
8.4851414
50
304.1534902
51
310.3025352
0
ARC
8
0
10
43.843816
20
15.7697389
40
7.3385401
50
310.2814473
51
318.0379185
0
ARC
8
0
10
44.8242861
20
14.9306777
40
6.0485291
50
317.737967
51
339.439346
0
ARC
8
0
10
45.1049092
20
14.7950145
40
5.7382072
50
339.7235896
51
348.562232
0
ARC
8
0
10
44.8528929
20
14.8454363
40
5.9952174
50
348.5675391
51
355.096741
0
ARC
8
0
10
44.4626878
20
14.879674
40
6.386921
50
355.0899209
51
0.0281508
0
LINE
8
DEFAULT_255_2_778
10
28.5253898
20
42.1679676
11
28.5253898
21
14.8828121
0
LINE
8
DEFAULT_255_2_778
10
50.849608
20
14.8828121
11
50.849608
21
42.1679676
0
LINE
8
DEFAULT_255_2_778
10
50.849608
20
28.5253766
11
28.5253898
21
28.5253766
0
LINE
8
DEFAULT_255_2_778
10
39.6874989
20
7.4413928
11
39.6874989
21
-7.4414193
0
LINE
8
DEFAULT_4_2_778
10
37.2070302
20
-7.441406
11
42.1679676
21
-7.441406
0
LINE
8
DEFAULT_4_2_778
10
39.6874989
20
-9.9218747
11
39.6874989
21
-7.441406
0
LINE
8
DEFAULT_255_2_778
10
39.6874989
20
28.5253898
11
33.4863272
21
38.4472646
0
LINE
8
DEFAULT_255_2_778
10
33.4863272
20
38.4472646
11
45.8886706
21
38.4472646
0
LINE
8
DEFAULT_255_2_778
10
45.8886706
20
38.4472646
11
39.6874989
21
28.5253898
0
ENDSEC
0
EOF