0
SECTION
2
HEADER
0
ENDSEC
0
SECTION
2
TABLES
0
TABLE
2
LTYPE
0
LTYPE
72
65
70
64
2
CONTINUOUS
3
______
73
0
40
0
0
ENDTAB
0
TABLE
2
LAYER
0
LAYER
2
DEFAULT_255_2_778
70
0
62
255
6
CONTINUOUS
0
LAYER
2
DEFAULT_4_2_778
70
0
62
4
6
CONTINUOUS
0
ENDTAB
0
ENDSEC
0
SECTION
2
ENTITIES
0
LINE
8
DEFAULT_255_2_778
10
39.6874989
20
9.9218615
11
39.6874989
21
-6.2011849
0
LINE
8
DEFAULT_4_2_778
10
37.2070302
20
-6.2011717
11
42.1679676
21
-6.2011717
0
LINE
8
DEFAULT_4_2_778
10
39.6874989
20
-8.6816404
11
39.6874989
21
-6.2011717
0
LINE
8
DEFAULT_255_2_778
10
39.6874989
20
50.8495947
11
39.6874989
21
34.7265483
0
LINE
8
DEFAULT_4_2_778
10
37.2070302
20
50.849608
11
42.1679676
21
50.849608
0
LINE
8
DEFAULT_4_2_778
10
39.6874989
20
53.3300766
11
39.6874989
21
50.849608
0
ARC
8
0
10
39.8982264
20
22.3283281
40
12.6130716
50
172.0937678
51
180.0186697
0
ARC
8
0
10
39.6617138
20
22.3602411
40
12.3744175
50
162.334564
51
172.0894933
0
ARC
8
0
10
39.6133711
20
22.3735373
40
12.3243198
50
149.3725327
51
162.3252623
0
ARC
8
0
10
39.673367
20
22.3374606
40
12.3943255
50
114.62823
51
149.3703197
0
ARC
8
0
10
39.637639
20
22.3999655
40
12.3226194
50
103.3527257
51
114.5983313
0
ARC
8
0
10
39.665911
20
22.2739956
40
12.4517134
50
94.380263
51
103.3454352
0
ARC
8
0
10
39.6860924
20
22.0381718
40
12.68839
50
89.9936487
51
94.3897964
0
ARC
8
0
10
39.6916088
20
22.1135088
40
12.6130534
50
82.0937622
51
90.0186696
0
ARC
8
0
10
39.72352
20
22.3500087
40
12.3744121
50
72.3345581
51
82.0894873
0
ARC
8
0
10
39.7368162
20
22.3983493
40
12.3243165
50
59.3725282
51
72.3252596
0
ARC
8
0
10
39.7007357
20
22.338344
40
12.3943322
50
24.6282461
51
59.3703218
0
ARC
8
0
10
39.7632634
20
22.3740811
40
12.3226016
50
13.3527305
51
24.5983534
0
ARC
8
0
10
39.6372764
20
22.3458035
40
12.4517137
50
4.3802746
51
13.3454468
0
ARC
8
0
10
39.4014525
20
22.3256246
40
12.68839
50
359.9936487
51
4.3897964
0
ARC
8
0
10
39.4768193
20
22.3201068
40
12.6130237
50
352.0937462
51
0.0186762
0
ARC
8
0
10
39.7132877
20
22.2881977
40
12.374414
50
342.33455
51
352.0894811
0
ARC
8
0
10
39.7616382
20
22.2748986
40
12.324308
50
329.3725072
51
342.3252502
0
ARC
8
0
10
39.7016213
20
22.3109854
40
12.394337
50
294.6282406
51
329.3703036
0
ARC
8
0
10
39.7373555
20
22.2484638
40
12.322613
50
283.3527394
51
294.5983483
0
ARC
8
0
10
39.7090865
20
22.3744258
40
12.4516985
50
274.3802658
51
283.3454436
0
ARC
8
0
10
39.6889054
20
22.6102438
40
12.6883693
50
269.9936487
51
274.3898001
0
ARC
8
0
10
39.683389
20
22.5349456
40
12.6130716
50
262.0937678
51
270.0186697
0
ARC
8
0
10
39.651476
20
22.2984333
40
12.3744177
50
252.334564
51
262.0894933
0
ARC
8
0
10
39.6381817
20
22.250091
40
12.3243208
50
239.3725255
51
252.3252545
0
ARC
8
0
10
39.6742596
20
22.3100892
40
12.3943293
50
204.6282325
51
239.3703128
0
ARC
8
0
10
39.6117484
20
22.2743586
40
12.3226164
50
193.3527279
51
204.5983354
0
ARC
8
0
10
39.7377164
20
22.3026304
40
12.4517084
50
184.380264
51
193.345438
0
ARC
8
0
10
39.9735366
20
22.3228116
40
12.6883813
50
179.9936487
51
184.3897982
0
LINE
8
DEFAULT_255_2_778
10
27.2851555
20
22.3242181
11
27.2851555
21
22.3242181
0
ARC
8
0
10
32.2228353
20
31.0126238
40
1.2169955
50
180.3180434
51
212.8856648
0
ARC
8
0
10
32.6498988
20
31.2668878
40
1.7137792
50
212.2718112
51
223.0483361
0
ARC
8
0
10
33.0930881
20
31.676994
40
2.3175987
50
222.9783474
51
230.7217667
0
ARC
8
0
10
33.5918611
20
32.2830007
40
3.1024645
50
230.6767831
51
236.5876241
0
ARC
8
0
10
34.1410123
20
33.1126552
40
4.0973977
50
236.5661743
51
241.4261764
0
ARC
8
0
10
34.7158837
20
34.1625903
40
5.2944086
50
241.3971868
51
245.1852663
0
ARC
8
0
10
35.3111009
20
35.4482978
40
6.7112103
50
245.1795659
51
248.545635
0
ARC
8
0
10
35.9387782
20
37.0424138
40
8.424448
50
248.5380099
51
251.4862413
0
ARC
8
0
10
36.5690651
20
38.9201016
40
10.4050974
50
251.4783054
51
254.0414177
0
ARC
8
0
10
37.1721682
20
41.0232387
40
12.5929997
50
254.0340546
51
256.2564339
0
ARC
8
0
10
37.7431576
20
43.3551652
40
14.993814
50
256.2540277
51
258.3204461
0
ARC
8
0
10
38.2671458
20
45.8838442
40
17.5762119
50
258.316408
51
260.1864344
0
ARC
8
0
10
38.7325569
20
48.5734349
40
20.3057735
50
260.1859276
51
262.0231339
0
ARC
8
0
10
39.1432151
20
51.5100429
40
23.2709559
50
262.025197
51
263.985274
0
ARC
8
0
10
39.4571061
20
54.482201
40
26.259643
50
263.9836852
51
265.9815894
0
ARC
8
0
10
39.6471534
20
57.2076102
40
28.9916699
50
265.9843729
51
268.5336422
0
ARC
8
0
10
39.6868481
20
58.4819481
40
30.2666071
50
268.5202556
51
270.0012319
0
ARC
8
0
10
39.6933872
20
58.0886347
40
29.8732941
50
269.9887065
51
273.0960218
0
ARC
8
0
10
39.8271964
20
55.5989867
40
27.3800528
50
273.097802
51
275.2763109
0
ARC
8
0
10
40.1003401
20
52.6393658
40
24.4078544
50
275.2767267
51
277.2498686
0
ARC
8
0
10
40.4724022
20
49.7074777
40
21.4524529
50
277.2522911
51
279.0582174
0
ARC
8
0
10
40.9094613
20
46.9680514
40
18.6783808
50
279.0572396
51
280.9029634
0
ARC
8
0
10
41.4262295
20
44.2939614
40
15.9548162
50
280.8970528
51
283.0006665
0
ARC
8
0
10
42.0149496
20
41.7477995
40
13.3414792
50
282.9970633
51
285.2907849
0
ARC
8
0
10
42.6342513
20
39.4851659
40
10.9956221
50
285.2872345
51
287.7977111
0
ARC
8
0
10
43.2446076
20
37.5836288
40
8.9985297
50
287.7981756
51
290.431786
0
ARC
8
0
10
43.857529
20
35.9440315
40
7.2481162
50
290.4160448
51
293.6745717
0
ARC
8
0
10
44.4825264
20
34.5214506
40
5.6942964
50
293.6627685
51
297.4887666
0
ARC
8
0
10
45.0813232
20
33.3732705
40
4.3993549
50
297.4728447
51
302.0455544
0
ARC
8
0
10
45.6362613
20
32.4886857
40
3.355111
50
302.0280421
51
307.5099601
0
ARC
8
0
10
46.144348
20
31.829646
40
2.5229563
50
307.4702261
51
314.5663054
0
ARC
8
0
10
46.6027813
20
31.3669962
40
1.8716492
50
314.5066576
51
324.1383504
0
ARC
8
0
10
46.9975355
20
31.0856203
40
1.3868923
50
324.0052274
51
339.4953315
0
ARC
8
0
10
47.1998583
20
31.0053577
40
1.1692811
50
339.706383
51
0.025025
0
ARC
8
0
10
32.2228353
20
13.6358124
40
1.2169955
50
147.1143352
51
179.6819566
0
ARC
8
0
10
32.6498988
20
13.3815485
40
1.7137792
50
136.9516639
51
147.7281888
0
ARC
8
0
10
33.0930881
20
12.9714422
40
2.3175987
50
129.2782333
51
137.0216526
0
ARC
8
0
10
33.5918611
20
12.3654356
40
3.1024645
50
123.4123759
51
129.3232169
0
ARC
8
0
10
34.1410123
20
11.5357811
40
4.0973977
50
118.5738236
51
123.4338257
0
ARC
8
0
10
34.7158837
20
10.485846
40
5.2944086
50
114.8147337
51
118.6028132
0
ARC
8
0
10
35.3111009
20
9.2001384
40
6.7112103
50
111.454365
51
114.8204341
0
ARC
8
0
10
35.9387782
20
7.6060225
40
8.424448
50
108.5137587
51
111.4619901
0
ARC
8
0
10
36.5690651
20
5.7283346
40
10.4050974
50
105.9585823
51
108.5216946
0
ARC
8
0
10
37.1721682
20
3.6251975
40
12.5929997
50
103.7435661
51
105.9659454
0
ARC
8
0
10
37.7431576
20
1.2932711
40
14.993814
50
101.6795539
51
103.7459723
0
ARC
8
0
10
38.2671458
20
-1.2354079
40
17.5762119
50
99.8135656
51
101.683592
0
ARC
8
0
10
38.7325569
20
-3.9249987
40
20.3057735
50
97.9768661
51
99.8140724
0
ARC
8
0
10
39.1432151
20
-6.8616067
40
23.2709559
50
96.014726
51
97.974803
0
ARC
8
0
10
39.4571061
20
-9.8337647
40
26.259643
50
94.0184106
51
96.0163148
0
ARC
8
0
10
39.6471534
20
-12.5591739
40
28.9916699
50
91.4663578
51
94.0156271
0
ARC
8
0
10
39.6868481
20
-13.8335118
40
30.2666071
50
89.9987681
51
91.4797444
0
ARC
8
0
10
39.6933872
20
-13.4401985
40
29.8732941
50
86.9039782
51
90.0112935
0
ARC
8
0
10
39.8271964
20
-10.9505505
40
27.3800528
50
84.7236891
51
86.902198
0
ARC
8
0
10
40.1003401
20
-7.9909295
40
24.4078544
50
82.7501314
51
84.7232733
0
ARC
8
0
10
40.4724022
20
-5.0590415
40
21.4524529
50
80.9417826
51
82.7477089
0
ARC
8
0
10
40.9094613
20
-2.3196152
40
18.6783808
50
79.0970366
51
80.9427604
0
ARC
8
0
10
41.4262295
20
0.3544749
40
15.9548162
50
76.9993335
51
79.1029472
0
ARC
8
0
10
42.0149496
20
2.9006368
40
13.3414792
50
74.7092151
51
77.0029367
0
ARC
8
0
10
42.6342513
20
5.1632704
40
10.9956221
50
72.2022889
51
74.7127655
0
ARC
8
0
10
43.2446076
20
7.0648074
40
8.9985297
50
69.568214
51
72.2018244
0
ARC
8
0
10
43.857529
20
8.7044047
40
7.2481162
50
66.3254283
51
69.5839552
0
ARC
8
0
10
44.4825264
20
10.1269856
40
5.6942964
50
62.5112334
51
66.3372315
0
ARC
8
0
10
45.0813232
20
11.2751658
40
4.3993549
50
57.9544456
51
62.5271553
0
ARC
8
0
10
45.6362613
20
12.1597505
40
3.355111
50
52.4900399
51
57.9719579
0
ARC
8
0
10
46.144348
20
12.8187903
40
2.5229563
50
45.4336946
51
52.5297739
0
ARC
8
0
10
46.6027813
20
13.2814401
40
1.8716492
50
35.8616496
51
45.4933424
0
ARC
8
0
10
46.9975355
20
13.5628159
40
1.3868923
50
20.5046685
51
35.9947726
0
ARC
8
0
10
47.1998583
20
13.6430785
40
1.1692811
50
359.974975
51
20.293617
0
ENDSEC
0
EOF