0
SECTION
2
HEADER
0
ENDSEC
0
SECTION
2
TABLES
0
TABLE
2
LTYPE
0
LTYPE
72
65
70
64
2
CONTINUOUS
3
______
73
0
40
0
0
ENDTAB
0
TABLE
2
LAYER
0
LAYER
2
DEFAULT_255_2_778
70
0
62
255
6
CONTINUOUS
0
LAYER
2
DEFAULT_4_2_778
70
0
62
4
6
CONTINUOUS
0
ENDTAB
0
ENDSEC
0
SECTION
2
ENTITIES
0
LINE
8
DEFAULT_255_2_778
10
39.6874989
20
9.9218615
11
39.6874989
21
-6.2011849
0
LINE
8
DEFAULT_4_2_778
10
37.2070302
20
-6.2011717
11
42.1679676
21
-6.2011717
0
LINE
8
DEFAULT_4_2_778
10
39.6874989
20
-8.6816404
11
39.6874989
21
-6.2011717
0
LINE
8
DEFAULT_255_2_778
10
39.6874989
20
50.8495947
11
39.6874989
21
34.7265483
0
LINE
8
DEFAULT_4_2_778
10
37.2070302
20
50.849608
11
42.1679676
21
50.849608
0
LINE
8
DEFAULT_4_2_778
10
39.6874989
20
53.3300766
11
39.6874989
21
50.849608
0
ARC
8
0
10
39.8982264
20
22.3283281
40
12.6130716
50
172.0937678
51
180.0186697
0
ARC
8
0
10
39.6617138
20
22.3602411
40
12.3744175
50
162.334564
51
172.0894933
0
ARC
8
0
10
39.6133711
20
22.3735373
40
12.3243198
50
149.3725327
51
162.3252623
0
ARC
8
0
10
39.673367
20
22.3374606
40
12.3943255
50
114.62823
51
149.3703197
0
ARC
8
0
10
39.637639
20
22.3999655
40
12.3226194
50
103.3527257
51
114.5983313
0
ARC
8
0
10
39.665911
20
22.2739956
40
12.4517134
50
94.380263
51
103.3454352
0
ARC
8
0
10
39.6860924
20
22.0381718
40
12.68839
50
89.9936487
51
94.3897964
0
ARC
8
0
10
39.6916088
20
22.1135088
40
12.6130534
50
82.0937622
51
90.0186696
0
ARC
8
0
10
39.72352
20
22.3500087
40
12.3744121
50
72.3345581
51
82.0894873
0
ARC
8
0
10
39.7368162
20
22.3983493
40
12.3243165
50
59.3725282
51
72.3252596
0
ARC
8
0
10
39.7007357
20
22.338344
40
12.3943322
50
24.6282461
51
59.3703218
0
ARC
8
0
10
39.7632634
20
22.3740811
40
12.3226016
50
13.3527305
51
24.5983534
0
ARC
8
0
10
39.6372764
20
22.3458035
40
12.4517137
50
4.3802746
51
13.3454468
0
ARC
8
0
10
39.4014525
20
22.3256246
40
12.68839
50
359.9936487
51
4.3897964
0
ARC
8
0
10
39.4768193
20
22.3201068
40
12.6130237
50
352.0937462
51
0.0186762
0
ARC
8
0
10
39.7132877
20
22.2881977
40
12.374414
50
342.33455
51
352.0894811
0
ARC
8
0
10
39.7616382
20
22.2748986
40
12.324308
50
329.3725072
51
342.3252502
0
ARC
8
0
10
39.7016213
20
22.3109854
40
12.394337
50
294.6282406
51
329.3703036
0
ARC
8
0
10
39.7373555
20
22.2484638
40
12.322613
50
283.3527394
51
294.5983483
0
ARC
8
0
10
39.7090865
20
22.3744258
40
12.4516985
50
274.3802658
51
283.3454436
0
ARC
8
0
10
39.6889054
20
22.6102438
40
12.6883693
50
269.9936487
51
274.3898001
0
ARC
8
0
10
39.683389
20
22.5349456
40
12.6130716
50
262.0937678
51
270.0186697
0
ARC
8
0
10
39.651476
20
22.2984333
40
12.3744177
50
252.334564
51
262.0894933
0
ARC
8
0
10
39.6381817
20
22.250091
40
12.3243208
50
239.3725255
51
252.3252545
0
ARC
8
0
10
39.6742596
20
22.3100892
40
12.3943293
50
204.6282325
51
239.3703128
0
ARC
8
0
10
39.6117484
20
22.2743586
40
12.3226164
50
193.3527279
51
204.5983354
0
ARC
8
0
10
39.7377164
20
22.3026304
40
12.4517084
50
184.380264
51
193.345438
0
ARC
8
0
10
39.9735366
20
22.3228116
40
12.6883813
50
179.9936487
51
184.3897982
0
LINE
8
DEFAULT_255_2_778
10
27.2851555
20
22.3242181
11
27.2851555
21
22.3242181
0
LINE
8
DEFAULT_255_2_778
10
44.6484495
20
22.3242049
11
47.1289182
21
24.8046736
0
LINE
8
DEFAULT_255_2_778
10
47.1289182
20
24.8046736
11
48.3691525
21
21.0839706
0
LINE
8
DEFAULT_255_2_778
10
48.3691525
20
21.0839706
11
44.6484495
21
22.3242049
0
LINE
8
DEFAULT_255_2_778
10
33.4863272
20
21.0839838
11
39.6874989
21
13.6425777
0
LINE
8
DEFAULT_255_2_778
10
39.6874989
20
13.6425777
11
39.6874989
21
31.0058585
0
LINE
8
DEFAULT_255_2_778
10
39.6874989
20
31.0058585
11
45.8886706
21
23.5644525
0
LINE
8
DEFAULT_255_2_778
10
34.7265748
20
22.3242049
11
32.2461061
21
19.8437362
0
LINE
8
DEFAULT_255_2_778
10
32.2461061
20
19.8437362
11
31.0058717
21
23.5644392
0
LINE
8
DEFAULT_255_2_778
10
31.0058717
20
23.5644392
11
34.7265748
21
22.3242049
0
ENDSEC
0
EOF