0
SECTION
2
HEADER
0
ENDSEC
0
SECTION
2
TABLES
0
TABLE
2
LTYPE
0
LTYPE
72
65
70
64
2
CONTINUOUS
3
______
73
0
40
0
0
ENDTAB
0
TABLE
2
LAYER
0
LAYER
2
DEFAULT_255_2_778
70
0
62
255
6
CONTINUOUS
0
LAYER
2
DEFAULT_4_2_778
70
0
62
4
6
CONTINUOUS
0
ENDTAB
0
ENDSEC
0
SECTION
2
ENTITIES
0
LINE
8
DEFAULT_255_2_778
10
39.6874989
20
0.6201172
11
39.6874989
21
-15.5029293
0
LINE
8
DEFAULT_4_2_778
10
37.2070302
20
-15.5029425
11
42.1679676
21
-15.5029425
0
LINE
8
DEFAULT_4_2_778
10
39.6874989
20
-17.9834112
11
39.6874989
21
-15.5029425
0
ARC
8
0
10
39.8982264
20
13.0265837
40
12.6130716
50
172.0937678
51
180.0186697
0
ARC
8
0
10
39.6617138
20
13.0584968
40
12.3744175
50
162.334564
51
172.0894933
0
ARC
8
0
10
39.6133711
20
13.071793
40
12.3243198
50
149.3725327
51
162.3252623
0
ARC
8
0
10
39.673367
20
13.0357163
40
12.3943255
50
114.62823
51
149.3703197
0
ARC
8
0
10
39.637639
20
13.0982211
40
12.3226194
50
103.3527257
51
114.5983313
0
ARC
8
0
10
39.665911
20
12.9722513
40
12.4517134
50
94.380263
51
103.3454352
0
ARC
8
0
10
39.6860924
20
12.7364274
40
12.68839
50
89.9936487
51
94.3897964
0
ARC
8
0
10
39.6916088
20
12.8117645
40
12.6130534
50
82.0937622
51
90.0186696
0
ARC
8
0
10
39.72352
20
13.0482644
40
12.3744121
50
72.3345581
51
82.0894873
0
ARC
8
0
10
39.7368162
20
13.0966049
40
12.3243165
50
59.3725282
51
72.3252596
0
ARC
8
0
10
39.7007357
20
13.0365996
40
12.3943322
50
24.6282461
51
59.3703218
0
ARC
8
0
10
39.7632634
20
13.0723368
40
12.3226016
50
13.3527305
51
24.5983534
0
ARC
8
0
10
39.6372764
20
13.0440591
40
12.4517137
50
4.3802746
51
13.3454468
0
ARC
8
0
10
39.4014525
20
13.0238803
40
12.68839
50
359.9936487
51
4.3897964
0
ARC
8
0
10
39.4768193
20
13.0183624
40
12.6130237
50
352.0937462
51
0.0186762
0
ARC
8
0
10
39.7132877
20
12.9864534
40
12.374414
50
342.33455
51
352.0894811
0
ARC
8
0
10
39.7616382
20
12.9731543
40
12.324308
50
329.3725072
51
342.3252502
0
ARC
8
0
10
39.7016213
20
13.0092411
40
12.394337
50
294.6282406
51
329.3703036
0
ARC
8
0
10
39.7373555
20
12.9467195
40
12.322613
50
283.3527394
51
294.5983483
0
ARC
8
0
10
39.7090865
20
13.0726815
40
12.4516985
50
274.3802658
51
283.3454436
0
ARC
8
0
10
39.6889054
20
13.3084995
40
12.6883693
50
269.9936487
51
274.3898001
0
ARC
8
0
10
39.683389
20
13.2332013
40
12.6130716
50
262.0937678
51
270.0186697
0
ARC
8
0
10
39.651476
20
12.996689
40
12.3744177
50
252.334564
51
262.0894933
0
ARC
8
0
10
39.6381817
20
12.9483466
40
12.3243208
50
239.3725255
51
252.3252545
0
ARC
8
0
10
39.6742596
20
13.0083449
40
12.3943293
50
204.6282325
51
239.3703128
0
ARC
8
0
10
39.6117484
20
12.9726143
40
12.3226164
50
193.3527279
51
204.5983354
0
ARC
8
0
10
39.7377164
20
13.000886
40
12.4517084
50
184.380264
51
193.345438
0
ARC
8
0
10
39.9735366
20
13.0210673
40
12.6883813
50
179.9936487
51
184.3897982
0
LINE
8
DEFAULT_255_2_778
10
27.2851555
20
13.0224738
11
27.2851555
21
13.0224738
0
ARC
8
0
10
39.7032388
20
6.2049405
40
3.116328
50
162.2115896
51
180.0692914
0
ARC
8
0
10
39.6813977
20
6.207168
40
3.0948539
50
106.2330235
51
162.1273271
0
ARC
8
0
10
39.684214
20
6.1807433
40
3.1210159
50
89.9396963
51
106.1470565
0
ARC
8
0
10
39.6912669
20
6.1854468
40
3.116313
50
72.2115453
51
90.0692774
0
ARC
8
0
10
39.6934868
20
6.2072643
40
3.0948637
50
16.2331372
51
72.1272823
0
ARC
8
0
10
39.6670801
20
6.2044559
40
3.1210063
50
359.9397091
51
16.1471211
0
ARC
8
0
10
39.6717748
20
6.197403
40
3.1163122
50
342.2114963
51
0.0692913
0
ARC
8
0
10
39.6935921
20
6.195184
40
3.0948634
50
286.2330697
51
342.1272167
0
ARC
8
0
10
39.6907832
20
6.2215834
40
3.1209992
50
269.9397069
51
286.147101
0
ARC
8
0
10
39.6837301
20
6.2169116
40
3.116328
50
252.2115896
51
270.0692914
0
ARC
8
0
10
39.6815026
20
6.1950705
40
3.0948539
50
196.2330235
51
252.1273271
0
ARC
8
0
10
39.7079273
20
6.1978868
40
3.1210159
50
179.9396963
51
196.1470565
0
LINE
8
DEFAULT_255_2_778
10
36.586913
20
6.2011717
11
36.586913
21
6.2011717
0
LINE
8
DEFAULT_255_2_778
10
39.6874989
20
22.9443353
11
39.6874989
21
9.3017576
0
ENDSEC
0
EOF