0
SECTION
2
HEADER
0
ENDSEC
0
SECTION
2
TABLES
0
TABLE
2
LTYPE
0
LTYPE
72
65
70
64
2
CONTINUOUS
3
______
73
0
40
0
0
ENDTAB
0
TABLE
2
LAYER
0
LAYER
2
DEFAULT_255_2_778
70
0
62
255
6
CONTINUOUS
0
LAYER
2
DEFAULT_4_2_778
70
0
62
4
6
CONTINUOUS
0
ENDTAB
0
ENDSEC
0
SECTION
2
ENTITIES
0
LINE
8
DEFAULT_255_2_778
10
39.6874989
20
9.9218615
11
39.6874989
21
-6.2011849
0
LINE
8
DEFAULT_4_2_778
10
37.2070302
20
-6.2011717
11
42.1679676
21
-6.2011717
0
LINE
8
DEFAULT_4_2_778
10
39.6874989
20
-8.6816404
11
39.6874989
21
-6.2011717
0
LINE
8
DEFAULT_255_2_778
10
39.6874989
20
50.8495947
11
39.6874989
21
34.7265483
0
LINE
8
DEFAULT_4_2_778
10
37.2070302
20
50.849608
11
42.1679676
21
50.849608
0
LINE
8
DEFAULT_4_2_778
10
39.6874989
20
53.3300766
11
39.6874989
21
50.849608
0
LINE
8
DEFAULT_255_2_778
10
52.0898423
20
22.3242181
11
27.2851555
21
22.3242181
0
LINE
8
DEFAULT_255_2_778
10
39.6874989
20
34.7265615
11
27.2851555
21
22.3242181
0
LINE
8
DEFAULT_255_2_778
10
27.2851555
20
22.3242181
11
39.6874989
21
9.9218747
0
LINE
8
DEFAULT_255_2_778
10
39.6874989
20
9.9218747
11
52.0898423
21
22.3242181
0
LINE
8
DEFAULT_255_2_778
10
52.0898423
20
22.3242181
11
39.6874989
21
34.7265615
0
LINE
8
DEFAULT_255_2_778
10
39.6874989
20
9.9218747
11
39.6874989
21
34.7265615
0
LINE
8
DEFAULT_255_2_778
10
39.6874989
20
22.3242049
11
42.1679676
21
28.5253766
0
LINE
8
DEFAULT_255_2_778
10
42.1679676
20
28.5253766
11
37.2070302
21
28.5253766
0
LINE
8
DEFAULT_255_2_778
10
37.2070302
20
28.5253766
11
39.6874989
21
22.3242049
0
LINE
8
DEFAULT_255_2_778
10
39.6874989
20
9.9218615
11
42.1679676
21
16.1230332
0
LINE
8
DEFAULT_255_2_778
10
42.1679676
20
16.1230332
11
37.2070302
21
16.1230332
0
LINE
8
DEFAULT_255_2_778
10
37.2070302
20
16.1230332
11
39.6874989
21
9.9218615
0
ENDSEC
0
EOF