0
SECTION
2
HEADER
0
ENDSEC
0
SECTION
2
TABLES
0
TABLE
2
LTYPE
0
LTYPE
72
65
70
64
2
CONTINUOUS
3
______
73
0
40
0
0
LTYPE
72
65
70
64
2
DASH_DEFAULT_255_2_778_043_064
3
______
73
2
40
2
49
-0.17776692213865736
49
0.2645833259738156
0
ENDTAB
0
TABLE
2
LAYER
0
LAYER
2
DEFAULT_255_2_778
70
0
62
255
6
CONTINUOUS
0
LAYER
2
DEFAULT_4_2_778
70
0
62
4
6
CONTINUOUS
0
LAYER
2
DEFAULT_255_2_778_043_064
70
0
62
255
6
DASH_DEFAULT_255_2_778_043_064
0
ENDTAB
0
ENDSEC
0
SECTION
2
ENTITIES
0
LINE
8
DEFAULT_255_2_778
10
26.6650515
20
38.4472646
11
46.508801
21
38.4472646
0
LINE
8
DEFAULT_255_2_778
10
46.508801
20
38.4472646
11
46.508801
21
6.2011717
0
LINE
8
DEFAULT_255_2_778
10
46.508801
20
6.2011717
11
26.6650515
21
6.2011717
0
LINE
8
DEFAULT_255_2_778
10
26.6650515
20
6.2011717
11
26.6650515
21
38.4472646
0
LINE
8
DEFAULT_255_2_778
10
40.3076293
20
6.2011717
11
40.3076293
21
-6.2011717
0
LINE
8
DEFAULT_255_2_778
10
30.3857546
20
13.6425777
11
32.8662233
21
6.2011717
0
LINE
8
DEFAULT_255_2_778
10
32.8662233
20
6.2011717
11
35.3466919
21
13.6425777
0
LINE
8
DEFAULT_255_2_778
10
35.3466919
20
13.6425777
11
30.3857546
21
13.6425777
0
LINE
8
DEFAULT_4_2_778
10
37.8271606
20
-6.2011717
11
42.788098
21
-6.2011717
0
LINE
8
DEFAULT_4_2_778
10
40.3076293
20
-8.6816404
11
40.3076293
21
-6.2011717
0
LINE
8
DEFAULT_4_2_778
10
32.8662233
20
53.3300766
11
32.8662233
21
50.849608
0
LINE
8
DEFAULT_255_2_778
10
32.8662233
20
50.849608
11
32.8662233
21
38.4472646
0
LINE
8
DEFAULT_4_2_778
10
30.3857546
20
50.849608
11
35.3466919
21
50.849608
0
LINE
8
DEFAULT_255_2_778
10
32.8662233
20
38.4472646
11
32.8662233
21
6.2011717
0
LINE
8
DEFAULT_255_2_778
10
32.8662233
20
6.2011717
11
32.8662233
21
-6.2011717
0
LINE
8
DEFAULT_4_2_778
10
30.3857546
20
-6.2011717
11
35.3466919
21
-6.2011717
0
LINE
8
DEFAULT_4_2_778
10
32.8662233
20
-8.6816404
11
32.8662233
21
-6.2011717
0
LINE
8
DEFAULT_255_2_778
10
30.3857546
20
31.0058585
11
32.8662233
21
38.4472646
0
LINE
8
DEFAULT_255_2_778
10
32.8662233
20
38.4472646
11
35.3466919
21
31.0058585
0
LINE
8
DEFAULT_255_2_778
10
35.3466919
20
31.0058585
11
30.3857546
21
31.0058585
0
LINE
8
DEFAULT_255_2_778
10
55.1904282
20
21.0839706
11
53.9501938
21
9.9218615
0
LINE
8
DEFAULT_255_2_778
10
53.9501938
20
9.9218615
11
52.7099595
21
21.0839706
0
LINE
8
DEFAULT_255_2_778
10
52.7099595
20
21.0839706
11
51.4697251
21
9.9218615
0
LINE
8
DEFAULT_255_2_778
10
51.4697251
20
9.9218615
11
50.2294908
21
21.0839706
0
LINE
8
DEFAULT_255_2_778
10
50.2294908
20
21.0839706
11
48.9892564
21
9.9218615
0
LINE
8
DEFAULT_255_2_778
10
48.9892564
20
9.9218615
11
47.7490221
21
21.0839706
0
LINE
8
DEFAULT_255_2_778
10
47.7490221
20
21.0839706
11
46.5087878
21
9.9218615
0
LINE
8
DEFAULT_255_2_778_043_064
10
32.86621
20
38.4472646
11
27.9052727
21
43.4082019
0
LINE
8
DEFAULT_255_2_778_043_064
10
27.9052727
20
43.4082019
11
21.704101
21
43.4082019
0
LINE
8
DEFAULT_255_2_778_043_064
10
21.704101
20
43.4082019
11
21.704101
21
21.0839838
0
LINE
8
DEFAULT_255_2_778_043_064
10
21.704101
20
21.0839838
11
26.6650383
21
21.0839838
0
LINE
8
DEFAULT_255_2_778
10
47.7490353
20
4.9609374
11
57.6709101
21
29.7656242
0
LINE
8
DEFAULT_255_2_778
10
57.0507797
20
23.5644392
11
57.6708968
21
29.7656109
0
LINE
8
DEFAULT_255_2_778
10
57.6708968
20
29.7656109
11
53.9501938
21
25.4247908
0
LINE
8
DEFAULT_255_2_778
10
53.9501938
20
25.4247908
11
57.0507797
21
23.5644392
0
ENDSEC
0
EOF