0
SECTION
2
HEADER
0
ENDSEC
0
SECTION
2
TABLES
0
TABLE
2
LTYPE
0
LTYPE
72
65
70
64
2
CONTINUOUS
3
______
73
0
40
0
0
ENDTAB
0
TABLE
2
LAYER
0
LAYER
2
DEFAULT_255_2_778
70
0
62
255
6
CONTINUOUS
0
LAYER
2
DEFAULT_4_2_778
70
0
62
4
6
CONTINUOUS
0
ENDTAB
0
ENDSEC
0
SECTION
2
ENTITIES
0
LINE
8
DEFAULT_255_2_778
10
39.6874989
20
-6.2011717
11
39.6874989
21
50.849608
0
LINE
8
DEFAULT_4_2_778
10
37.2070302
20
-6.2011717
11
42.1679676
21
-6.2011717
0
LINE
8
DEFAULT_4_2_778
10
39.6874989
20
-8.6816404
11
39.6874989
21
-6.2011717
0
LINE
8
DEFAULT_255_2_778
10
50.849608
20
6.2011717
11
28.5253898
21
6.2011717
0
LINE
8
DEFAULT_255_2_778
10
28.5253898
20
6.2011717
11
28.5253898
21
38.4472646
0
LINE
8
DEFAULT_255_2_778
10
28.5253898
20
38.4472646
11
50.849608
21
38.4472646
0
LINE
8
DEFAULT_255_2_778
10
50.849608
20
38.4472646
11
50.849608
21
6.2011717
0
ARC
8
0
10
55.4421584
20
18.8898192
40
15.4162359
50
141.3157976
51
144.0331862
0
ARC
8
0
10
54.2335272
20
19.7680211
40
13.9222391
50
144.0370135
51
146.6727927
0
ARC
8
0
10
53.1030303
20
20.5089711
40
12.5705638
50
146.6635903
51
150.0197476
0
ARC
8
0
10
52.0188498
20
21.1343975
40
11.3189227
50
150.0196276
51
153.6268921
0
ARC
8
0
10
51.0346883
20
21.6210257
40
10.2210249
50
153.6201717
51
157.9524176
0
ARC
8
0
10
50.1389022
20
21.982919
40
9.2548993
50
157.9472912
51
163.0933071
0
ARC
8
0
10
49.3780223
20
22.2133229
40
8.4599003
50
163.0876939
51
169.4908632
0
ARC
8
0
10
48.794965
20
22.3196341
40
7.8672332
50
169.4776283
51
179.966615
0
ARC
8
0
10
48.7984113
20
22.3290073
40
7.8706795
50
180.0348635
51
190.6767855
0
ARC
8
0
10
49.3972867
20
22.4397558
40
8.4797056
50
190.6624508
51
197.1202272
0
ARC
8
0
10
50.1674028
20
22.675696
40
9.285153
50
197.1127018
51
202.1993389
0
ARC
8
0
10
51.0394614
20
23.0299421
40
10.2264151
50
202.1909211
51
206.2837366
0
ARC
8
0
10
51.9667397
20
23.4865962
40
11.2600382
50
206.2777697
51
209.7047749
0
ARC
8
0
10
53.0006613
20
24.0768988
40
12.4506057
50
209.7065731
51
213.0116013
0
ARC
8
0
10
54.165302
20
24.8327039
40
13.8389965
50
213.0086272
51
215.9487043
0
ARC
8
0
10
55.4348958
20
25.7530675
40
15.4070966
50
215.9477566
51
218.6740853
0
LINE
8
0
10
43.4063731
20
16.1253329
11
43.4082019
21
16.1230464
0
ARC
8
0
10
23.9328394
20
18.8898192
40
15.4162359
50
35.9668138
51
38.6842024
0
ARC
8
0
10
25.1414706
20
19.7680211
40
13.9222391
50
33.3272073
51
35.9629865
0
ARC
8
0
10
26.2719675
20
20.5089711
40
12.5705638
50
29.9802524
51
33.3364097
0
ARC
8
0
10
27.356148
20
21.1343975
40
11.3189227
50
26.3731079
51
29.9803724
0
ARC
8
0
10
28.3403095
20
21.6210257
40
10.2210249
50
22.0475824
51
26.3798283
0
ARC
8
0
10
29.2360955
20
21.982919
40
9.2548993
50
16.9066929
51
22.0527088
0
ARC
8
0
10
29.9969755
20
22.2133229
40
8.4599003
50
10.5091368
51
16.9123061
0
ARC
8
0
10
30.5800328
20
22.3196341
40
7.8672332
50
0.033385
51
10.5223717
0
ARC
8
0
10
30.5765865
20
22.3290073
40
7.8706795
50
349.3232145
51
359.9651365
0
ARC
8
0
10
29.9777111
20
22.4397558
40
8.4797056
50
342.8797728
51
349.3375492
0
ARC
8
0
10
29.207595
20
22.675696
40
9.285153
50
337.8006611
51
342.8872982
0
ARC
8
0
10
28.3355363
20
23.0299421
40
10.2264151
50
333.7162634
51
337.8090789
0
ARC
8
0
10
27.4082581
20
23.4865962
40
11.2600382
50
330.2952251
51
333.7222303
0
ARC
8
0
10
26.3743365
20
24.0768988
40
12.4506057
50
326.9883987
51
330.2934269
0
ARC
8
0
10
25.2096958
20
24.8327039
40
13.8389965
50
324.0512957
51
326.9913728
0
ARC
8
0
10
23.940102
20
25.7530675
40
15.4070966
50
321.3259147
51
324.0522434
0
LINE
8
0
10
35.9686247
20
16.1253329
11
35.9667959
21
16.1230464
0
LINE
8
DEFAULT_255_2_778
10
33.4863272
20
17.3632808
11
48.3691393
21
27.2851555
0
LINE
8
DEFAULT_255_2_778
10
44.0283257
20
26.0449079
11
48.3691459
21
27.2851423
0
LINE
8
DEFAULT_255_2_778
10
48.3691459
20
27.2851423
11
45.8886772
21
23.5644392
0
LINE
8
DEFAULT_255_2_778
10
45.8886772
20
23.5644392
11
44.0283257
21
26.0449079
0
LINE
8
DEFAULT_4_2_778
10
37.2070302
20
50.849608
11
42.1679676
21
50.849608
0
LINE
8
DEFAULT_4_2_778
10
39.6874989
20
53.3300766
11
39.6874989
21
50.849608
0
ENDSEC
0
EOF