0
SECTION
2
HEADER
0
ENDSEC
0
SECTION
2
TABLES
0
TABLE
2
LTYPE
0
LTYPE
72
65
70
64
2
CONTINUOUS
3
______
73
0
40
0
0
ENDTAB
0
TABLE
2
LAYER
0
LAYER
2
DEFAULT_255_2_778
70
0
62
255
6
CONTINUOUS
0
LAYER
2
DEFAULT_4_2_778
70
0
62
4
6
CONTINUOUS
0
ENDTAB
0
ENDSEC
0
SECTION
2
ENTITIES
0
LINE
8
DEFAULT_255_2_778
10
32.2460929
20
16.1230332
11
32.2460929
21
62.0117038
0
LINE
8
DEFAULT_255_2_778
10
55.8105453
20
9.9218747
11
23.5644525
21
9.9218747
0
LINE
8
DEFAULT_255_2_778
10
23.5644525
20
9.9218747
11
23.5644525
21
49.6093736
0
LINE
8
DEFAULT_255_2_778
10
23.5644525
20
49.6093736
11
55.8105453
21
49.6093736
0
LINE
8
DEFAULT_255_2_778
10
55.8105453
20
49.6093736
11
55.8105453
21
9.9218747
0
LINE
8
DEFAULT_255_2_778
10
29.7656242
20
38.4472646
11
32.2460929
21
45.8886706
0
LINE
8
DEFAULT_255_2_778
10
32.2460929
20
45.8886706
11
34.7265615
21
38.4472646
0
LINE
8
DEFAULT_255_2_778
10
34.7265615
20
38.4472646
11
29.7656242
21
38.4472646
0
LINE
8
DEFAULT_4_2_778
10
29.7656242
20
62.011717
11
34.7265615
21
62.011717
0
LINE
8
DEFAULT_4_2_778
10
32.2460929
20
64.4921857
11
32.2460929
21
62.011717
0
ARC
8
0
10
39.6846032
20
9.9247667
40
1.237342
50
147.4067141
51
180.1339154
0
ARC
8
0
10
39.6841302
20
9.9252572
40
1.2366793
50
96.450986
51
147.4140532
0
ARC
8
0
10
39.6872135
20
9.8978359
40
1.2642733
50
89.9870646
51
96.4502109
0
ARC
8
0
10
39.6903913
20
9.9247717
40
1.2373408
50
57.4065107
51
90.1339356
0
ARC
8
0
10
39.6908785
20
9.9252423
40
1.236682
50
6.450958
51
57.4137841
0
ARC
8
0
10
39.6634821
20
9.92216
40
1.2642513
50
359.9870721
51
6.4502643
0
ARC
8
0
10
39.6903946
20
9.9189827
40
1.237342
50
327.4067141
51
0.1339154
0
ARC
8
0
10
39.6908676
20
9.9184923
40
1.2366793
50
276.450986
51
327.4140532
0
ARC
8
0
10
39.6877843
20
9.9459136
40
1.2642733
50
269.9870646
51
276.4502109
0
ARC
8
0
10
39.6846065
20
9.9189778
40
1.2373408
50
237.4065107
51
270.1339356
0
ARC
8
0
10
39.6841192
20
9.9185072
40
1.236682
50
186.450958
51
237.4137841
0
ARC
8
0
10
39.7115157
20
9.9215895
40
1.2642513
50
179.9870721
51
186.4502643
0
LINE
8
DEFAULT_255_2_778
10
38.4472646
20
9.9218747
11
38.4472646
21
9.9218747
0
LINE
8
DEFAULT_255_2_778
10
27.2851555
20
31.0058453
11
30.3857413
21
27.2851423
0
LINE
8
DEFAULT_255_2_778
10
30.3857413
20
27.2851423
11
27.2851555
21
23.5644392
0
LINE
8
DEFAULT_255_2_778
10
32.2460929
20
16.1230332
11
47.1289049
21
16.1230332
0
LINE
8
DEFAULT_255_2_778
10
47.1289049
20
16.1230332
11
47.1289049
21
62.0117038
0
LINE
8
DEFAULT_4_2_778
10
44.6484363
20
62.011717
11
49.6093736
21
62.011717
0
LINE
8
DEFAULT_4_2_778
10
47.1289049
20
64.4921857
11
47.1289049
21
62.011717
0
LINE
8
DEFAULT_255_2_778
10
37.2070236
20
31.0058453
11
34.1064377
21
27.2851423
0
LINE
8
DEFAULT_255_2_778
10
34.1064377
20
27.2851423
11
37.2070236
21
23.5644392
0
LINE
8
DEFAULT_255_2_778
10
39.6874923
20
-2.4804819
11
39.6874923
21
16.1230332
0
LINE
8
DEFAULT_255_2_778
10
42.167961
20
31.0058453
11
45.2685468
21
27.2851423
0
LINE
8
DEFAULT_255_2_778
10
45.2685468
20
27.2851423
11
42.167961
21
23.5644392
0
LINE
8
DEFAULT_255_2_778
10
52.0898357
20
31.0058453
11
48.9892498
21
27.2851423
0
LINE
8
DEFAULT_255_2_778
10
48.9892498
20
27.2851423
11
52.0898357
21
23.5644392
0
LINE
8
DEFAULT_255_2_778
10
44.6484363
20
38.4472646
11
47.1289049
21
45.8886706
0
LINE
8
DEFAULT_255_2_778
10
47.1289049
20
45.8886706
11
49.6093736
21
38.4472646
0
LINE
8
DEFAULT_255_2_778
10
49.6093736
20
38.4472646
11
44.6484363
21
38.4472646
0
LINE
8
DEFAULT_4_2_778
10
37.2070302
20
-2.4804687
11
42.1679676
21
-2.4804687
0
LINE
8
DEFAULT_4_2_778
10
39.6874989
20
-4.9609374
11
39.6874989
21
-2.4804687
0
ENDSEC
0
EOF