0
SECTION
2
HEADER
0
ENDSEC
0
SECTION
2
TABLES
0
TABLE
2
LTYPE
0
LTYPE
72
65
70
64
2
CONTINUOUS
3
______
73
0
40
0
0
ENDTAB
0
TABLE
2
LAYER
0
LAYER
2
DEFAULT_255_2_778
70
0
62
255
6
CONTINUOUS
0
LAYER
2
DEFAULT_4_2_778
70
0
62
4
6
CONTINUOUS
0
ENDTAB
0
ENDSEC
0
SECTION
2
ENTITIES
0
LINE
8
DEFAULT_255_2_778
10
7.441406
20
-13.0224738
11
71.9335917
21
-13.0224738
0
LINE
8
DEFAULT_255_2_778
10
19.8437494
20
-22.9443485
11
19.8437494
21
-3.1005991
0
LINE
8
DEFAULT_255_2_778
10
19.8437494
20
-3.1005991
11
59.5312483
21
-3.1005991
0
LINE
8
DEFAULT_255_2_778
10
59.5312483
20
-3.1005991
11
59.5312483
21
-22.9443485
0
LINE
8
DEFAULT_255_2_778
10
59.5312483
20
-22.9443485
11
19.8437494
21
-22.9443485
0
LINE
8
DEFAULT_4_2_778
10
71.9335917
20
-10.5420051
11
71.9335917
21
-15.5029425
0
LINE
8
DEFAULT_4_2_778
10
74.4140604
20
-13.0224738
11
71.9335917
21
-13.0224738
0
LINE
8
DEFAULT_4_2_778
10
7.441406
20
-10.5420051
11
7.441406
21
-15.5029425
0
LINE
8
DEFAULT_4_2_778
10
4.9609374
20
-13.0224738
11
7.441406
21
-13.0224738
0
ARC
8
0
10
31.0020578
20
-12.9964982
40
3.7466806
50
254.2493073
51
270.0581226
0
ARC
8
0
10
30.9944601
20
-13.0366667
40
3.7059597
50
226.0208536
51
254.1937828
0
ARC
8
0
10
30.9934088
20
-13.0329464
40
3.7079083
50
196.5476144
51
226.0724608
0
ARC
8
0
10
31.0267552
20
-13.0270171
40
3.7415644
50
180.4624164
51
196.489214
0
ARC
8
0
10
31.1196831
20
-13.0224707
40
3.8345278
50
180.0000467
51
180.519141
0
ARC
8
0
10
31.0318294
20
-13.0186723
40
3.7466758
50
164.2492873
51
180.0581341
0
ARC
8
0
10
30.9916632
20
-13.0110738
40
3.7059569
50
136.0208274
51
164.1937836
0
ARC
8
0
10
30.9953872
20
-13.0100258
40
3.7079104
50
106.5476145
51
136.072439
0
ARC
8
0
10
31.001316
20
-13.0433751
40
3.741569
50
90.4624281
51
106.4891949
0
ARC
8
0
10
31.0058616
20
-13.1362947
40
3.8345241
50
90.0000467
51
90.519141
0
ARC
8
0
10
31.0096593
20
-13.0484495
40
3.7466806
50
74.2493073
51
90.0581226
0
ARC
8
0
10
31.017257
20
-13.0082809
40
3.7059597
50
46.0208536
51
74.1937828
0
ARC
8
0
10
31.0183082
20
-13.0120012
40
3.7079083
50
16.5476144
51
46.0724608
0
ARC
8
0
10
30.9849618
20
-13.0179305
40
3.7415644
50
0.4624164
51
16.489214
0
ARC
8
0
10
30.8920339
20
-13.0224769
40
3.8345278
50
0.0000467
51
0.519141
0
ARC
8
0
10
30.9798876
20
-13.0262753
40
3.7466758
50
344.2492873
51
0.0581341
0
ARC
8
0
10
31.0200538
20
-13.0338738
40
3.7059569
50
316.0208274
51
344.1937836
0
ARC
8
0
10
31.0163299
20
-13.0349218
40
3.7079104
50
286.5476145
51
316.072439
0
ARC
8
0
10
31.010401
20
-13.0015725
40
3.741569
50
270.4624281
51
286.4891949
0
ARC
8
0
10
31.0058554
20
-12.9086529
40
3.8345241
50
270.0000467
51
270.519141
0
LINE
8
DEFAULT_255_2_778
10
31.0058585
20
-16.7431768
11
31.0058585
21
-16.7431768
0
LINE
8
DEFAULT_255_2_778
10
32.2460929
20
-19.2236455
11
24.8046868
21
-13.0224738
0
LINE
8
DEFAULT_255_2_778
10
24.8046868
20
-13.0224738
11
32.2460929
21
-6.8213021
0
LINE
8
DEFAULT_255_2_778
10
39.6874989
20
8.0615232
11
39.6874989
21
-13.0224606
0
ARC
8
0
10
39.6903913
20
-13.0195769
40
1.2373408
50
57.4065107
51
90.1339356
0
ARC
8
0
10
39.6908785
20
-13.0191063
40
1.236682
50
6.450958
51
57.4137841
0
ARC
8
0
10
39.6634821
20
-13.0221885
40
1.2642513
50
359.9870721
51
6.4502643
0
ARC
8
0
10
39.6903946
20
-13.0253658
40
1.237342
50
327.4067141
51
0.1339154
0
ARC
8
0
10
39.6908676
20
-13.0258563
40
1.2366793
50
276.450986
51
327.4140532
0
ARC
8
0
10
39.6877843
20
-12.998435
40
1.2642733
50
269.9870646
51
276.4502109
0
ARC
8
0
10
39.6846065
20
-13.0253707
40
1.2373408
50
237.4065107
51
270.1339356
0
ARC
8
0
10
39.6841192
20
-13.0258413
40
1.236682
50
186.450958
51
237.4137841
0
ARC
8
0
10
39.7115157
20
-13.0227591
40
1.2642513
50
179.9870721
51
186.4502643
0
ARC
8
0
10
39.6846032
20
-13.0195818
40
1.237342
50
147.4067141
51
180.1339154
0
ARC
8
0
10
39.6841302
20
-13.0190914
40
1.2366793
50
96.450986
51
147.4140532
0
ARC
8
0
10
39.6872135
20
-13.0465126
40
1.2642733
50
89.9870646
51
96.4502109
0
LINE
8
DEFAULT_255_2_778
10
39.6874989
20
-11.7822395
11
39.6874989
21
-11.7822395
0
LINE
8
DEFAULT_255_2_778
10
47.1289049
20
-19.2236455
11
54.570311
21
-13.0224738
0
LINE
8
DEFAULT_255_2_778
10
54.570311
20
-13.0224738
11
47.1289049
21
-6.8213021
0
LINE
8
DEFAULT_4_2_778
10
42.1679676
20
8.06151
11
37.2070302
21
8.06151
0
LINE
8
DEFAULT_4_2_778
10
39.6874989
20
10.5419787
11
39.6874989
21
8.06151
0
ENDSEC
0
EOF