0
SECTION
2
HEADER
0
ENDSEC
0
SECTION
2
TABLES
0
TABLE
2
LTYPE
0
LTYPE
72
65
70
64
2
CONTINUOUS
3
______
73
0
40
0
0
ENDTAB
0
TABLE
2
LAYER
0
LAYER
2
DEFAULT_255_2_778
70
0
62
255
6
CONTINUOUS
0
ENDTAB
0
ENDSEC
0
SECTION
2
ENTITIES
0
ARC
8
0
10
37.6466713
20
7.9005249
40
13.0356887
50
83.3496871
51
86.4789356
0
ARC
8
0
10
37.941766
20
10.4243082
40
10.494712
50
79.8304443
51
83.3542254
0
ARC
8
0
10
38.3253376
20
12.5423562
40
8.3422163
50
75.3237346
51
79.8550271
0
ARC
8
0
10
38.7887136
20
14.3025783
40
6.5220261
50
69.7830265
51
75.3438725
0
ARC
8
0
10
39.2847082
20
15.6443219
40
5.0915427
50
62.9899556
51
69.8028547
0
ARC
8
0
10
39.7892677
20
16.6271629
40
3.9867604
50
53.8233415
51
63.0355373
0
ARC
8
0
10
40.2757228
20
17.2849117
40
3.168685
50
39.3612158
51
53.9031387
0
ARC
8
0
10
40.4481805
20
17.4475886
40
2.932222
50
14.1706997
51
39.0407213
0
ARC
8
0
10
39.7461119
20
17.2576162
40
3.6594553
50
3.9728442
51
14.3635493
0
ARC
8
0
10
39.0095593
20
17.1942688
40
4.3986439
50
359.9561566
51
4.1312902
0
ARC
8
0
10
39.277362
20
17.1778705
40
4.1308605
50
351.3182105
51
0.1807635
0
ARC
8
0
10
40.1309549
20
17.043654
40
3.2667908
50
338.0986358
51
351.3854121
0
ARC
8
0
10
40.4507939
20
16.9290903
40
2.927331
50
309.6415106
51
337.8440397
0
ARC
8
0
10
39.9458203
20
17.5132169
40
3.699338
50
299.4501668
51
309.892314
0
ARC
8
0
10
39.4310219
20
18.4168518
40
4.7393192
50
291.8799432
51
299.4984167
0
ARC
8
0
10
38.9236648
20
19.6694838
40
6.0907946
50
286.0976039
51
291.9175803
0
ARC
8
0
10
38.4579496
20
21.2712611
40
7.7588989
50
281.4794486
51
286.1221417
0
ARC
8
0
10
38.0532769
20
23.2501476
40
9.778737
50
277.6658884
51
281.4955429
0
ARC
8
0
10
37.7302482
20
25.6297164
40
12.1801301
50
274.4888397
51
277.6786659
0
ARC
8
0
10
37.5739889
20
27.464301
40
14.0213223
50
273.5708056
51
274.5386786
0
LINE
8
0
10
38.4472646
20
13.4701999
11
38.4472646
21
4.7885596
0
LINE
8
DEFAULT_255_2_778
10
38.4472646
20
30.8334807
11
38.4472646
21
20.911606
0
LINE
8
DEFAULT_255_2_778
10
41.3270887
20
30.8334675
11
35.3491592
21
30.8334675
0
LINE
8
DEFAULT_255_2_778
10
38.4472646
20
33.9340599
11
38.4472646
21
30.8334741
0
LINE
8
DEFAULT_255_2_778
10
35.3466787
20
4.7885463
11
41.5478504
21
4.7885463
0
LINE
8
DEFAULT_255_2_778
10
38.4472646
20
1.6879539
11
38.4472646
21
4.7885397
0
ENDSEC
0
EOF