0
SECTION
2
HEADER
0
ENDSEC
0
SECTION
2
TABLES
0
TABLE
2
LTYPE
0
LTYPE
72
65
70
64
2
CONTINUOUS
3
______
73
0
40
0
0
ENDTAB
0
TABLE
2
LAYER
0
LAYER
2
DEFAULT_255_2_778
70
0
62
255
6
CONTINUOUS
0
LAYER
2
DEFAULT_4_2_778
70
0
62
4
6
CONTINUOUS
0
ENDTAB
0
ENDSEC
0
SECTION
2
ENTITIES
0
LINE
8
DEFAULT_255_2_778
10
59.5312483
20
6.2011717
11
39.6874989
21
6.2011717
0
LINE
8
DEFAULT_255_2_778
10
39.6874989
20
6.2011717
11
39.6874989
21
38.4472646
0
LINE
8
DEFAULT_255_2_778
10
39.6874989
20
38.4472646
11
59.5312483
21
38.4472646
0
LINE
8
DEFAULT_255_2_778
10
59.5312483
20
38.4472646
11
59.5312483
21
6.2011717
0
LINE
8
DEFAULT_255_2_778
10
49.6093736
20
50.8495947
11
49.6093736
21
29.7656109
0
LINE
8
DEFAULT_255_2_778
10
47.1289049
20
29.7656242
11
52.0898423
21
29.7656242
0
LINE
8
DEFAULT_255_2_778
10
49.6093736
20
-6.2011849
11
49.6093736
21
14.8827989
0
LINE
8
DEFAULT_255_2_778
10
47.1289049
20
14.8828121
11
52.0898423
21
14.8828121
0
LINE
8
DEFAULT_255_2_778
10
19.8437627
20
6.2011585
11
11.1621223
21
6.2011585
0
LINE
8
DEFAULT_255_2_778
10
11.1621223
20
6.2011585
11
11.1621223
21
17.3632675
0
LINE
8
DEFAULT_255_2_778
10
11.1621223
20
17.3632675
11
19.8437627
21
17.3632675
0
LINE
8
DEFAULT_255_2_778
10
19.8437627
20
17.3632675
11
19.8437627
21
6.2011585
0
LINE
8
DEFAULT_255_2_778
10
12.4023566
20
6.2011585
11
18.6035283
21
17.3632675
0
LINE
8
DEFAULT_255_2_778
10
11.1621091
20
33.486314
11
11.1621091
21
22.3242049
0
LINE
8
DEFAULT_255_2_778
10
19.8437627
20
31.0058453
11
11.1621223
21
31.0058453
0
LINE
8
DEFAULT_255_2_778
10
11.1621223
20
24.8046736
11
19.8437627
21
24.8046736
0
LINE
8
DEFAULT_255_2_778
10
39.6874989
20
6.2011717
11
19.8437494
21
6.2011717
0
LINE
8
DEFAULT_255_2_778
10
19.8437494
20
6.2011717
11
19.8437494
21
38.4472646
0
LINE
8
DEFAULT_255_2_778
10
19.8437494
20
38.4472646
11
39.6874989
21
38.4472646
0
LINE
8
DEFAULT_255_2_778
10
39.6874989
20
38.4472646
11
39.6874989
21
6.2011717
0
LINE
8
DEFAULT_255_2_778
10
29.7656242
20
6.2011717
11
29.7656242
21
38.4472646
0
LINE
8
DEFAULT_255_2_778
10
27.2851555
20
31.0058585
11
29.7656242
21
38.4472646
0
LINE
8
DEFAULT_255_2_778
10
29.7656242
20
38.4472646
11
32.2460929
21
31.0058585
0
LINE
8
DEFAULT_255_2_778
10
32.2460929
20
31.0058585
11
27.2851555
21
31.0058585
0
LINE
8
DEFAULT_4_2_778
10
47.1289049
20
50.849608
11
52.0898423
21
50.849608
0
LINE
8
DEFAULT_4_2_778
10
49.6093736
20
53.3300766
11
49.6093736
21
50.849608
0
LINE
8
DEFAULT_4_2_778
10
47.1289049
20
-6.2011717
11
52.0898423
21
-6.2011717
0
LINE
8
DEFAULT_4_2_778
10
49.6093736
20
-8.6816404
11
49.6093736
21
-6.2011717
0
LINE
8
DEFAULT_255_2_778
10
68.212902
20
6.2011585
11
66.9726676
21
17.3632675
0
LINE
8
DEFAULT_255_2_778
10
66.9726676
20
17.3632675
11
65.7324333
21
6.2011585
0
LINE
8
DEFAULT_255_2_778
10
65.7324333
20
6.2011585
11
64.4921989
21
17.3632675
0
LINE
8
DEFAULT_255_2_778
10
64.4921989
20
17.3632675
11
63.2519646
21
6.2011585
0
LINE
8
DEFAULT_255_2_778
10
63.2519646
20
6.2011585
11
62.0117303
21
17.3632675
0
LINE
8
DEFAULT_255_2_778
10
62.0117303
20
17.3632675
11
60.7714959
21
6.2011585
0
LINE
8
DEFAULT_255_2_778
10
60.7714959
20
6.2011585
11
59.5312616
21
17.3632675
0
ENDSEC
0
EOF