0
SECTION
2
HEADER
0
ENDSEC
0
SECTION
2
TABLES
0
TABLE
2
LTYPE
0
LTYPE
72
65
70
64
2
CONTINUOUS
3
______
73
0
40
0
0
ENDTAB
0
TABLE
2
LAYER
0
LAYER
2
DEFAULT_255_2_778
70
0
62
255
6
CONTINUOUS
0
LAYER
2
DEFAULT_4_2_778
70
0
62
4
6
CONTINUOUS
0
ENDTAB
0
ENDSEC
0
SECTION
2
ENTITIES
0
LINE
8
DEFAULT_255_2_778
10
44.0283191
20
6.2011717
11
20.4638666
21
6.2011717
0
LINE
8
DEFAULT_255_2_778
10
20.4638666
20
6.2011717
11
20.4638666
21
38.4472646
0
LINE
8
DEFAULT_255_2_778
10
20.4638666
20
38.4472646
11
44.0283191
21
38.4472646
0
LINE
8
DEFAULT_255_2_778
10
44.0283191
20
38.4472646
11
44.0283191
21
6.2011717
0
LINE
8
DEFAULT_255_2_778
10
60.1513787
20
-6.2011849
11
60.1513787
21
14.8827989
0
LINE
8
DEFAULT_255_2_778
10
57.6709101
20
14.8828121
11
62.6318474
21
14.8828121
0
LINE
8
DEFAULT_255_2_778
10
48.9892697
20
31.0058585
11
51.4697384
21
38.4472646
0
LINE
8
DEFAULT_255_2_778
10
51.4697384
20
38.4472646
11
53.950207
21
31.0058585
0
LINE
8
DEFAULT_255_2_778
10
53.950207
20
31.0058585
11
48.9892697
21
31.0058585
0
LINE
8
DEFAULT_255_2_778
10
51.4697384
20
-6.2011717
11
51.4697384
21
50.849608
0
LINE
8
DEFAULT_255_2_778
10
67.5927716
20
6.2011717
11
44.0283191
21
6.2011717
0
LINE
8
DEFAULT_255_2_778
10
44.0283191
20
6.2011717
11
44.0283191
21
38.4472646
0
LINE
8
DEFAULT_255_2_778
10
44.0283191
20
38.4472646
11
67.5927716
21
38.4472646
0
LINE
8
DEFAULT_255_2_778
10
67.5927716
20
38.4472646
11
67.5927716
21
6.2011717
0
LINE
8
DEFAULT_255_2_778
10
27.9052859
20
6.2011585
11
27.9052859
21
14.8827989
0
LINE
8
DEFAULT_255_2_778
10
25.4248172
20
14.8828121
11
30.3857546
21
14.8828121
0
LINE
8
DEFAULT_255_2_778
10
36.586913
20
6.2011717
11
27.9052727
21
38.4472646
0
LINE
8
DEFAULT_255_2_778
10
36.586913
20
6.2011717
11
37.2070302
21
13.6425777
0
LINE
8
DEFAULT_255_2_778
10
37.2070302
20
13.6425777
11
32.2460929
21
12.4023434
0
LINE
8
DEFAULT_255_2_778
10
32.2460929
20
12.4023434
11
36.586913
21
6.2011717
0
LINE
8
DEFAULT_4_2_778
10
48.9892697
20
-6.2011717
11
53.950207
21
-6.2011717
0
LINE
8
DEFAULT_4_2_778
10
51.4697384
20
-8.6816404
11
51.4697384
21
-6.2011717
0
LINE
8
DEFAULT_4_2_778
10
48.9892697
20
50.849608
11
53.950207
21
50.849608
0
LINE
8
DEFAULT_4_2_778
10
51.4697384
20
53.3300766
11
51.4697384
21
50.849608
0
LINE
8
DEFAULT_4_2_778
10
57.6709101
20
-6.2011717
11
62.6318474
21
-6.2011717
0
LINE
8
DEFAULT_4_2_778
10
60.1513787
20
-8.6816404
11
60.1513787
21
-6.2011717
0
LINE
8
DEFAULT_255_2_778
10
16.7431636
20
12.4023434
11
20.4638666
21
12.4023434
0
LINE
8
DEFAULT_255_2_778
10
10.5419919
20
6.2011717
11
16.7431636
21
12.4023434
0
LINE
8
DEFAULT_255_2_778
10
16.7431636
20
12.4023434
11
10.5419919
21
18.6035151
0
LINE
8
DEFAULT_255_2_778
10
10.5419919
20
18.6035151
11
10.5419919
21
6.2011717
0
LINE
8
DEFAULT_255_2_778
10
5.5810678
20
12.4023554
11
10.5420051
21
12.392436
0
LINE
8
DEFAULT_4_2_778
10
5.5810678
20
14.8828121
11
5.5810678
21
9.9218747
0
LINE
8
DEFAULT_4_2_778
10
3.1005991
20
12.3924215
11
5.5810678
21
12.3924215
0
LINE
8
DEFAULT_255_2_778
10
76.2744119
20
6.2011585
11
75.0341776
21
17.3632675
0
LINE
8
DEFAULT_255_2_778
10
75.0341776
20
17.3632675
11
73.7939433
21
6.2011585
0
LINE
8
DEFAULT_255_2_778
10
73.7939433
20
6.2011585
11
72.5537089
21
17.3632675
0
LINE
8
DEFAULT_255_2_778
10
72.5537089
20
17.3632675
11
71.3134746
21
6.2011585
0
LINE
8
DEFAULT_255_2_778
10
71.3134746
20
6.2011585
11
70.0732402
21
17.3632675
0
LINE
8
DEFAULT_255_2_778
10
70.0732402
20
17.3632675
11
68.8330059
21
6.2011585
0
LINE
8
DEFAULT_255_2_778
10
68.8330059
20
6.2011585
11
67.5927716
21
17.3632675
0
ENDSEC
0
EOF