0
SECTION
2
HEADER
0
ENDSEC
0
SECTION
2
TABLES
0
TABLE
2
LTYPE
0
LTYPE
72
65
70
64
2
CONTINUOUS
3
______
73
0
40
0
0
ENDTAB
0
TABLE
2
LAYER
0
LAYER
2
DEFAULT_255_2_778
70
0
62
255
6
CONTINUOUS
0
LAYER
2
DEFAULT_4_2_778
70
0
62
4
6
CONTINUOUS
0
ENDTAB
0
ENDSEC
0
SECTION
2
ENTITIES
0
LINE
8
DEFAULT_255_2_778
10
71.3134746
20
7.441406
11
42.7880847
21
7.441406
0
LINE
8
DEFAULT_255_2_778
10
42.7880847
20
7.441406
11
42.7880847
21
37.2070302
0
LINE
8
DEFAULT_255_2_778
10
42.7880847
20
37.2070302
11
71.3134746
21
37.2070302
0
LINE
8
DEFAULT_255_2_778
10
71.3134746
20
37.2070302
11
71.3134746
21
7.441406
0
LINE
8
DEFAULT_255_2_778
10
47.7490353
20
50.849608
11
47.7490353
21
-6.2011717
0
LINE
8
DEFAULT_255_2_778
10
45.8886838
20
29.7656242
11
47.7490353
21
37.2070302
0
LINE
8
DEFAULT_255_2_778
10
47.7490353
20
37.2070302
11
49.6093868
21
29.7656242
0
LINE
8
DEFAULT_255_2_778
10
49.6093868
20
29.7656242
11
45.8886838
21
29.7656242
0
LINE
8
DEFAULT_255_2_778
10
45.8886838
20
14.8828121
11
47.7490353
21
7.441406
0
LINE
8
DEFAULT_255_2_778
10
47.7490353
20
7.441406
11
49.6093868
21
14.8828121
0
LINE
8
DEFAULT_255_2_778
10
49.6093868
20
14.8828121
11
45.8886838
21
14.8828121
0
LINE
8
DEFAULT_255_2_778
10
53.950207
20
50.8495947
11
53.950207
21
27.2851423
0
LINE
8
DEFAULT_255_2_778
10
51.4697251
20
27.2851555
11
56.4306625
21
27.2851555
0
LINE
8
DEFAULT_255_2_778
10
60.1513655
20
50.849608
11
60.1513655
21
-6.2011717
0
LINE
8
DEFAULT_255_2_778
10
58.2910272
20
29.7656242
11
60.1513787
21
37.2070302
0
LINE
8
DEFAULT_255_2_778
10
60.1513787
20
37.2070302
11
62.0117303
21
29.7656242
0
LINE
8
DEFAULT_255_2_778
10
62.0117303
20
29.7656242
11
58.2910272
21
29.7656242
0
LINE
8
DEFAULT_255_2_778
10
58.2910272
20
14.8828121
11
60.1513787
21
7.441406
0
LINE
8
DEFAULT_255_2_778
10
60.1513787
20
7.441406
11
62.0117303
21
14.8828121
0
LINE
8
DEFAULT_255_2_778
10
62.0117303
20
14.8828121
11
58.2910272
21
14.8828121
0
LINE
8
DEFAULT_255_2_778
10
66.3525504
20
50.8495947
11
66.3525504
21
27.2851423
0
LINE
8
DEFAULT_255_2_778
10
63.8720818
20
27.2851555
11
68.8330191
21
27.2851555
0
LINE
8
DEFAULT_255_2_778
10
37.8271606
20
37.2070302
11
38.4472778
21
29.7656242
0
LINE
8
DEFAULT_255_2_778
10
38.4472778
20
29.7656242
11
34.7265748
21
31.0058585
0
LINE
8
DEFAULT_255_2_778
10
34.7265748
20
31.0058585
11
37.8271606
21
37.2070302
0
LINE
8
DEFAULT_255_2_778
10
31.6259889
20
7.441406
11
31.0058717
21
14.8828121
0
LINE
8
DEFAULT_255_2_778
10
31.0058717
20
14.8828121
11
34.7265748
21
13.6425777
0
LINE
8
DEFAULT_255_2_778
10
34.7265748
20
13.6425777
11
31.6259889
21
7.441406
0
LINE
8
DEFAULT_4_2_778
10
51.4697384
20
50.849608
11
56.4306757
21
50.849608
0
LINE
8
DEFAULT_4_2_778
10
53.950207
20
53.3300766
11
53.950207
21
50.849608
0
LINE
8
DEFAULT_4_2_778
10
57.6709101
20
50.849608
11
62.6318474
21
50.849608
0
LINE
8
DEFAULT_4_2_778
10
60.1513787
20
53.3300766
11
60.1513787
21
50.849608
0
LINE
8
DEFAULT_4_2_778
10
63.8720818
20
50.849608
11
68.8330191
21
50.849608
0
LINE
8
DEFAULT_4_2_778
10
66.3525504
20
53.3300766
11
66.3525504
21
50.849608
0
LINE
8
DEFAULT_255_2_778
10
42.7880847
20
7.441406
11
14.2626949
21
7.441406
0
LINE
8
DEFAULT_255_2_778
10
14.2626949
20
7.441406
11
14.2626949
21
37.2070302
0
LINE
8
DEFAULT_255_2_778
10
14.2626949
20
37.2070302
11
42.7880847
21
37.2070302
0
LINE
8
DEFAULT_255_2_778
10
42.7880847
20
37.2070302
11
42.7880847
21
7.441406
0
LINE
8
DEFAULT_255_2_778
10
19.2236323
20
37.2070302
11
19.2236323
21
22.3242181
0
LINE
8
DEFAULT_255_2_778
10
19.2236323
20
22.3242181
11
31.6259757
21
22.3242181
0
LINE
8
DEFAULT_255_2_778
10
31.6259757
20
22.3242181
11
31.6259757
21
37.2070302
0
LINE
8
DEFAULT_255_2_778
10
37.8271474
20
37.2070302
11
31.6259757
21
7.441406
0
LINE
8
DEFAULT_255_2_778
10
25.4248172
20
37.2070302
11
26.0449344
21
29.7656242
0
LINE
8
DEFAULT_255_2_778
10
26.0449344
20
29.7656242
11
22.3242314
21
31.0058585
0
LINE
8
DEFAULT_255_2_778
10
22.3242314
20
31.0058585
11
25.4248172
21
37.2070302
0
LINE
8
DEFAULT_255_2_778
10
19.2236455
20
7.441406
11
18.6035283
21
14.8828121
0
LINE
8
DEFAULT_255_2_778
10
18.6035283
20
14.8828121
11
22.3242314
21
13.6425777
0
LINE
8
DEFAULT_255_2_778
10
22.3242314
20
13.6425777
11
19.2236455
21
7.441406
0
LINE
8
DEFAULT_255_2_778
10
25.424804
20
37.2070302
11
19.2236323
21
7.441406
0
LINE
8
DEFAULT_4_2_778
10
45.2685667
20
50.849608
11
50.229504
21
50.849608
0
LINE
8
DEFAULT_4_2_778
10
47.7490353
20
53.3300766
11
47.7490353
21
50.849608
0
LINE
8
DEFAULT_4_2_778
10
45.2685667
20
-6.2011717
11
50.229504
21
-6.2011717
0
LINE
8
DEFAULT_4_2_778
10
47.7490353
20
-8.6816404
11
47.7490353
21
-6.2011717
0
LINE
8
DEFAULT_4_2_778
10
57.6709101
20
-6.2011717
11
62.6318474
21
-6.2011717
0
LINE
8
DEFAULT_4_2_778
10
60.1513787
20
-8.6816404
11
60.1513787
21
-6.2011717
0
LINE
8
DEFAULT_255_2_778
10
23.5644657
20
14.8828121
11
25.4248172
21
7.441406
0
LINE
8
DEFAULT_255_2_778
10
25.4248172
20
7.441406
11
27.2851687
21
14.8828121
0
LINE
8
DEFAULT_255_2_778
10
27.2851687
20
14.8828121
11
23.5644657
21
14.8828121
0
LINE
8
DEFAULT_255_2_778
10
17.363294
20
29.7656242
11
19.2236455
21
37.2070302
0
LINE
8
DEFAULT_255_2_778
10
19.2236455
20
37.2070302
11
21.083997
21
29.7656242
0
LINE
8
DEFAULT_255_2_778
10
21.083997
20
29.7656242
11
17.363294
21
29.7656242
0
LINE
8
DEFAULT_255_2_778
10
29.7656374
20
29.7656242
11
31.6259889
21
37.2070302
0
LINE
8
DEFAULT_255_2_778
10
31.6259889
20
37.2070302
11
33.4863404
21
29.7656242
0
LINE
8
DEFAULT_255_2_778
10
33.4863404
20
29.7656242
11
29.7656374
21
29.7656242
0
LINE
8
DEFAULT_255_2_778
10
25.4248007
20
7.441406
11
25.4248007
21
22.3242181
0
LINE
8
DEFAULT_255_2_778
10
71.3134713
20
7.441406
11
72.5537056
21
17.3632808
0
LINE
8
DEFAULT_255_2_778
10
72.5537056
20
17.3632808
11
73.79394
21
7.441406
0
LINE
8
DEFAULT_255_2_778
10
73.79394
20
7.441406
11
75.0341743
21
17.3632808
0
LINE
8
DEFAULT_255_2_778
10
75.0341743
20
17.3632808
11
76.2744086
21
7.441406
0
LINE
8
DEFAULT_255_2_778
10
76.2744086
20
7.441406
11
77.514643
21
17.3632808
0
LINE
8
DEFAULT_255_2_778
10
77.514643
20
17.3632808
11
78.7548773
21
7.441406
0
LINE
8
DEFAULT_255_2_778
10
11.4721643
20
11.7822262
11
14.2626916
21
11.7822262
0
LINE
8
DEFAULT_255_2_778
10
6.8212856
20
7.4413928
11
11.4721643
21
11.782213
0
LINE
8
DEFAULT_255_2_778
10
11.4721643
20
11.782213
11
6.8212856
21
16.1230332
0
LINE
8
DEFAULT_255_2_778
10
6.8212856
20
16.1230332
11
6.8212856
21
7.4413928
0
LINE
8
DEFAULT_255_2_778
10
3.1005859
20
11.78222
11
6.8212889
21
11.7760148
0
LINE
8
DEFAULT_4_2_778
10
3.1005991
20
14.2626817
11
3.1005991
21
9.3017443
0
LINE
8
DEFAULT_4_2_778
10
0.6201304
20
11.7723176
11
3.1005991
21
11.7723176
0
ENDSEC
0
EOF