0
SECTION
2
HEADER
0
ENDSEC
0
SECTION
2
TABLES
0
TABLE
2
LTYPE
0
LTYPE
72
65
70
64
2
CONTINUOUS
3
______
73
0
40
0
0
ENDTAB
0
TABLE
2
LAYER
0
LAYER
2
DEFAULT_255_2_778
70
0
62
255
6
CONTINUOUS
0
LAYER
2
DEFAULT_4_2_778
70
0
62
4
6
CONTINUOUS
0
ENDTAB
0
ENDSEC
0
SECTION
2
ENTITIES
0
LINE
8
DEFAULT_255_2_778
10
11.7822262
20
35.9667959
11
30.3857413
21
35.9667959
0
LINE
8
DEFAULT_255_2_778
10
30.3857413
20
35.9667959
11
30.3857413
21
8.6816404
0
LINE
8
DEFAULT_255_2_778
10
30.3857413
20
8.6816404
11
11.7822262
21
8.6816404
0
LINE
8
DEFAULT_255_2_778
10
11.7822262
20
8.6816404
11
11.7822262
21
35.9667959
0
LINE
8
DEFAULT_255_2_778
10
21.7041142
20
16.1230464
11
24.1845829
21
8.6816404
0
LINE
8
DEFAULT_255_2_778
10
24.1845829
20
8.6816404
11
26.6650515
21
16.1230464
0
LINE
8
DEFAULT_255_2_778
10
26.6650515
20
16.1230464
11
21.7041142
21
16.1230464
0
LINE
8
DEFAULT_255_2_778
10
15.5029425
20
28.5253898
11
17.9834112
21
35.9667959
0
LINE
8
DEFAULT_255_2_778
10
17.9834112
20
35.9667959
11
20.4638798
21
28.5253898
0
LINE
8
DEFAULT_255_2_778
10
20.4638798
20
28.5253898
11
15.5029425
21
28.5253898
0
LINE
8
DEFAULT_255_2_778
10
17.9833979
20
50.849608
11
17.9833979
21
-6.2011717
0
LINE
8
DEFAULT_255_2_778
10
24.1845696
20
50.849608
11
24.1845696
21
-6.2011717
0
LINE
8
DEFAULT_255_2_778
10
30.3857413
20
35.9667959
11
48.9892564
21
35.9667959
0
LINE
8
DEFAULT_255_2_778
10
48.9892564
20
35.9667959
11
48.9892564
21
8.6816404
0
LINE
8
DEFAULT_255_2_778
10
48.9892564
20
8.6816404
11
30.3857413
21
8.6816404
0
LINE
8
DEFAULT_255_2_778
10
30.3857413
20
8.6816404
11
30.3857413
21
35.9667959
0
LINE
8
DEFAULT_255_2_778
10
36.586913
20
35.9667959
11
36.586913
21
8.6816404
0
LINE
8
DEFAULT_255_2_778
10
42.7880847
20
35.9667959
11
42.7880847
21
8.6816404
0
ARC
8
0
10
36.5840252
20
22.3271082
40
1.2373367
50
147.4064561
51
180.1338273
0
ARC
8
0
10
36.5835645
20
22.3275928
40
1.2366876
50
96.4511971
51
147.4138738
0
ARC
8
0
10
36.586641
20
22.3002013
40
1.2642513
50
89.9870722
51
96.4502645
0
ARC
8
0
10
36.5898164
20
22.3271192
40
1.2373367
50
57.4064561
51
90.1338273
0
ARC
8
0
10
36.590301
20
22.3275799
40
1.2366876
50
6.4511971
51
57.4138738
0
ARC
8
0
10
36.5629094
20
22.3245034
40
1.2642513
50
359.9870722
51
6.4502645
0
ARC
8
0
10
36.5898273
20
22.3213281
40
1.2373367
50
327.4064561
51
0.1338273
0
ARC
8
0
10
36.5902881
20
22.3208434
40
1.2366876
50
276.4511971
51
327.4138738
0
ARC
8
0
10
36.5872115
20
22.348235
40
1.2642513
50
269.9870722
51
276.4502645
0
ARC
8
0
10
36.5840362
20
22.3213171
40
1.2373367
50
237.4064561
51
270.1338273
0
ARC
8
0
10
36.5835516
20
22.3208563
40
1.2366876
50
186.4511971
51
237.4138738
0
ARC
8
0
10
36.6109431
20
22.3239329
40
1.2642513
50
179.9870722
51
186.4502645
0
LINE
8
DEFAULT_255_2_778
10
35.3466919
20
22.3242181
11
35.3466919
21
22.3242181
0
ARC
8
0
10
42.7852023
20
22.3271101
40
1.237342
50
147.4067141
51
180.1339154
0
ARC
8
0
10
42.7847293
20
22.3276006
40
1.2366793
50
96.450986
51
147.4140532
0
ARC
8
0
10
42.7878125
20
22.3001793
40
1.2642733
50
89.9870646
51
96.4502109
0
ARC
8
0
10
42.7909904
20
22.3271151
40
1.2373408
50
57.4065107
51
90.1339356
0
ARC
8
0
10
42.7914776
20
22.3275857
40
1.236682
50
6.450958
51
57.4137841
0
ARC
8
0
10
42.7640812
20
22.3245034
40
1.2642513
50
359.9870721
51
6.4502643
0
ARC
8
0
10
42.7909937
20
22.3213261
40
1.237342
50
327.4067141
51
0.1339154
0
ARC
8
0
10
42.7914667
20
22.3208357
40
1.2366793
50
276.450986
51
327.4140532
0
ARC
8
0
10
42.7883834
20
22.348257
40
1.2642733
50
269.9870646
51
276.4502109
0
ARC
8
0
10
42.7852055
20
22.3213212
40
1.2373408
50
237.4065107
51
270.1339356
0
ARC
8
0
10
42.7847183
20
22.3208506
40
1.236682
50
186.450958
51
237.4137841
0
ARC
8
0
10
42.8121147
20
22.3239329
40
1.2642513
50
179.9870721
51
186.4502643
0
LINE
8
DEFAULT_255_2_778
10
41.5478636
20
22.3242181
11
41.5478636
21
22.3242181
0
LINE
8
DEFAULT_255_2_778
10
36.586913
20
22.3242181
11
42.7880847
21
22.3242181
0
LINE
8
DEFAULT_255_2_778
10
48.9892564
20
35.9667959
11
67.5927716
21
35.9667959
0
LINE
8
DEFAULT_255_2_778
10
67.5927716
20
35.9667959
11
67.5927716
21
8.6816404
0
LINE
8
DEFAULT_255_2_778
10
67.5927716
20
8.6816404
11
48.9892564
21
8.6816404
0
LINE
8
DEFAULT_255_2_778
10
48.9892564
20
8.6816404
11
48.9892564
21
35.9667959
0
LINE
8
DEFAULT_255_2_778
10
53.9501938
20
35.9667959
11
62.6318342
21
8.6816404
0
LINE
8
DEFAULT_255_2_778
10
62.6318342
20
35.9667959
11
53.9501938
21
8.6816404
0
LINE
8
DEFAULT_255_2_778
10
62.6318276
20
35.9667959
11
62.6318276
21
28.5253898
0
LINE
8
DEFAULT_255_2_778
10
62.6318276
20
28.5253898
11
58.2910074
21
29.7656242
0
LINE
8
DEFAULT_255_2_778
10
58.2910074
20
29.7656242
11
62.6318276
21
35.9667959
0
LINE
8
DEFAULT_255_2_778
10
62.6318276
20
8.6816404
11
62.6318276
21
16.1230464
0
LINE
8
DEFAULT_255_2_778
10
62.6318276
20
16.1230464
11
58.2910074
21
14.8828121
0
LINE
8
DEFAULT_255_2_778
10
58.2910074
20
14.8828121
11
62.6318276
21
8.6816404
0
LINE
8
DEFAULT_255_2_778
10
76.2744119
20
28.5253898
11
75.0341776
21
35.9667959
0
LINE
8
DEFAULT_255_2_778
10
75.0341776
20
35.9667959
11
73.7939433
21
28.5253898
0
LINE
8
DEFAULT_255_2_778
10
73.7939433
20
28.5253898
11
72.5537089
21
35.9667959
0
LINE
8
DEFAULT_255_2_778
10
72.5537089
20
35.9667959
11
71.3134746
21
28.5253898
0
LINE
8
DEFAULT_255_2_778
10
71.3134746
20
28.5253898
11
70.0732402
21
35.9667959
0
LINE
8
DEFAULT_255_2_778
10
70.0732402
20
35.9667959
11
68.8330059
21
28.5253898
0
LINE
8
DEFAULT_255_2_778
10
68.8330059
20
28.5253898
11
67.5927716
21
35.9667959
0
LINE
8
DEFAULT_4_2_778
10
15.5029425
20
50.849608
11
20.4638798
21
50.849608
0
LINE
8
DEFAULT_4_2_778
10
17.9834112
20
53.3300766
11
17.9834112
21
50.849608
0
LINE
8
DEFAULT_4_2_778
10
21.7041142
20
50.849608
11
26.6650515
21
50.849608
0
LINE
8
DEFAULT_4_2_778
10
24.1845829
20
53.3300766
11
24.1845829
21
50.849608
0
LINE
8
DEFAULT_4_2_778
10
21.7041142
20
-6.2011717
11
26.6650515
21
-6.2011717
0
LINE
8
DEFAULT_4_2_778
10
24.1845696
20
-8.6816404
11
24.1845696
21
-6.2011717
0
LINE
8
DEFAULT_4_2_778
10
15.5029293
20
-6.2011717
11
20.4638666
21
-6.2011717
0
LINE
8
DEFAULT_4_2_778
10
17.9834112
20
-8.6816404
11
17.9834112
21
-6.2011717
0
LINE
8
DEFAULT_255_2_778
10
3.1005859
20
28.5253898
11
4.3408202
21
35.9667959
0
LINE
8
DEFAULT_255_2_778
10
4.3408202
20
35.9667959
11
5.5810545
21
28.5253898
0
LINE
8
DEFAULT_255_2_778
10
5.5810545
20
28.5253898
11
6.8212889
21
35.9667959
0
LINE
8
DEFAULT_255_2_778
10
6.8212889
20
35.9667959
11
8.0615232
21
28.5253898
0
LINE
8
DEFAULT_255_2_778
10
8.0615232
20
28.5253898
11
9.3017576
21
35.9667959
0
LINE
8
DEFAULT_255_2_778
10
9.3017576
20
35.9667959
11
10.5419919
21
28.5253898
0
LINE
8
DEFAULT_255_2_778
10
10.5419919
20
28.5253898
11
11.7822262
21
35.9667959
0
LINE
8
DEFAULT_255_2_778
10
11.7822262
20
11.1621091
11
5.5810545
21
11.1621091
0
LINE
8
DEFAULT_255_2_778
10
11.7822262
20
16.1230464
11
5.5810545
21
16.1230464
0
LINE
8
DEFAULT_255_2_778
10
5.5810545
20
8.6816404
11
5.5810545
21
18.6035151
0
ARC
8
0
10
5.5781687
20
19.8466399
40
1.2373387
50
147.4065307
51
180.1338448
0
ARC
8
0
10
5.5777046
20
19.8471259
40
1.2366858
50
96.4511543
51
147.4139177
0
ARC
8
0
10
5.5807827
20
19.8197248
40
1.264259
50
89.9870789
51
96.4502438
0
ARC
8
0
10
5.5839584
20
19.8466503
40
1.2373368
50
57.4064547
51
90.1338528
0
ARC
8
0
10
5.5844431
20
19.8471123
40
1.2366867
50
6.4511526
51
57.4138476
0
ARC
8
0
10
5.5570509
20
19.8440347
40
1.2642513
50
359.9870722
51
6.4502645
0
ARC
8
0
10
5.5839668
20
19.840859
40
1.2373387
50
327.4065307
51
0.1338448
0
ARC
8
0
10
5.584431
20
19.840373
40
1.2366858
50
276.4511543
51
327.4139177
0
ARC
8
0
10
5.5813529
20
19.8677741
40
1.264259
50
269.9870789
51
276.4502438
0
ARC
8
0
10
5.5781771
20
19.8408485
40
1.2373368
50
237.4064547
51
270.1338528
0
ARC
8
0
10
5.5776924
20
19.8403866
40
1.2366867
50
186.4511526
51
237.4138476
0
ARC
8
0
10
5.6050846
20
19.8434642
40
1.2642513
50
179.9870722
51
186.4502645
0
LINE
8
DEFAULT_255_2_778
10
4.3408334
20
19.8437494
11
4.3408334
21
19.8437494
0
ENDSEC
0
EOF