0
SECTION
2
HEADER
0
ENDSEC
0
SECTION
2
TABLES
0
TABLE
2
LTYPE
0
LTYPE
72
65
70
64
2
CONTINUOUS
3
______
73
0
40
0
0
ENDTAB
0
TABLE
2
LAYER
0
LAYER
2
DEFAULT_255_2_778
70
0
62
255
6
CONTINUOUS
0
LAYER
2
DEFAULT_4_2_778
70
0
62
4
6
CONTINUOUS
0
ENDTAB
0
ENDSEC
0
SECTION
2
ENTITIES
0
LINE
8
DEFAULT_255_2_778
10
15.5029293
20
6.2011585
11
6.8212889
21
6.2011585
0
LINE
8
DEFAULT_255_2_778
10
6.8212889
20
6.2011585
11
6.8212889
21
17.3632675
0
LINE
8
DEFAULT_255_2_778
10
6.8212889
20
17.3632675
11
15.5029293
21
17.3632675
0
LINE
8
DEFAULT_255_2_778
10
15.5029293
20
17.3632675
11
15.5029293
21
6.2011585
0
LINE
8
DEFAULT_255_2_778
10
8.0615232
20
6.2011585
11
14.2626949
21
17.3632675
0
LINE
8
DEFAULT_255_2_778
10
6.8213021
20
33.486314
11
6.8213021
21
22.3242049
0
LINE
8
DEFAULT_255_2_778
10
15.5029293
20
31.0058453
11
6.8212889
21
31.0058453
0
LINE
8
DEFAULT_255_2_778
10
6.8212889
20
24.8046736
11
15.5029293
21
24.8046736
0
LINE
8
DEFAULT_255_2_778
10
15.5029293
20
31.0058585
11
24.1845696
21
31.0058585
0
LINE
8
DEFAULT_255_2_778
10
24.1845696
20
31.0058585
11
24.1845696
21
6.2011717
0
LINE
8
DEFAULT_255_2_778
10
24.1845696
20
6.2011717
11
15.5029293
21
6.2011717
0
LINE
8
DEFAULT_255_2_778
10
15.5029293
20
6.2011717
11
15.5029293
21
31.0058585
0
LINE
8
DEFAULT_255_2_778
10
15.5029425
20
31.0058585
11
20.4638798
21
18.6035151
0
LINE
8
DEFAULT_255_2_778
10
20.4638798
20
18.6035151
11
15.5029425
21
6.2011717
0
LINE
8
DEFAULT_255_2_778
10
44.0283323
20
6.2011717
11
24.1845829
21
6.2011717
0
LINE
8
DEFAULT_255_2_778
10
24.1845829
20
6.2011717
11
24.1845829
21
38.4472646
0
LINE
8
DEFAULT_255_2_778
10
24.1845829
20
38.4472646
11
44.0283323
21
38.4472646
0
LINE
8
DEFAULT_255_2_778
10
44.0283323
20
38.4472646
11
44.0283323
21
6.2011717
0
LINE
8
DEFAULT_255_2_778
10
34.1064576
20
38.4472513
11
34.1064576
21
29.7656109
0
LINE
8
DEFAULT_255_2_778
10
31.6259889
20
29.7656242
11
36.5869263
21
29.7656242
0
LINE
8
DEFAULT_255_2_778
10
34.1064576
20
6.2011585
11
34.1064576
21
14.8827989
0
LINE
8
DEFAULT_255_2_778
10
31.6259889
20
14.8828121
11
36.5869263
21
14.8828121
0
LINE
8
DEFAULT_255_2_778
10
63.8720818
20
6.2011717
11
44.0283323
21
6.2011717
0
LINE
8
DEFAULT_255_2_778
10
44.0283323
20
6.2011717
11
44.0283323
21
38.4472646
0
LINE
8
DEFAULT_255_2_778
10
44.0283323
20
38.4472646
11
63.8720818
21
38.4472646
0
LINE
8
DEFAULT_255_2_778
10
63.8720818
20
38.4472646
11
63.8720818
21
6.2011717
0
LINE
8
DEFAULT_255_2_778
10
51.4697384
20
31.0058585
11
53.950207
21
38.4472646
0
LINE
8
DEFAULT_255_2_778
10
53.950207
20
38.4472646
11
56.4306757
21
31.0058585
0
LINE
8
DEFAULT_255_2_778
10
56.4306757
20
31.0058585
11
51.4697384
21
31.0058585
0
LINE
8
DEFAULT_255_2_778
10
53.950207
20
-6.2011717
11
53.950207
21
50.849608
0
LINE
8
DEFAULT_4_2_778
10
51.4697384
20
-6.2011717
11
56.4306757
21
-6.2011717
0
LINE
8
DEFAULT_4_2_778
10
53.950207
20
-8.6816404
11
53.950207
21
-6.2011717
0
LINE
8
DEFAULT_4_2_778
10
51.4697384
20
50.849608
11
56.4306757
21
50.849608
0
LINE
8
DEFAULT_4_2_778
10
53.950207
20
53.3300766
11
53.950207
21
50.849608
0
LINE
8
DEFAULT_255_2_778
10
72.5537089
20
6.2011585
11
71.3134746
21
17.3632675
0
LINE
8
DEFAULT_255_2_778
10
71.3134746
20
17.3632675
11
70.0732402
21
6.2011585
0
LINE
8
DEFAULT_255_2_778
10
70.0732402
20
6.2011585
11
68.8330059
21
17.3632675
0
LINE
8
DEFAULT_255_2_778
10
68.8330059
20
17.3632675
11
67.5927716
21
6.2011585
0
LINE
8
DEFAULT_255_2_778
10
67.5927716
20
6.2011585
11
66.3525372
21
17.3632675
0
LINE
8
DEFAULT_255_2_778
10
66.3525372
20
17.3632675
11
65.1123029
21
6.2011585
0
LINE
8
DEFAULT_255_2_778
10
65.1123029
20
6.2011585
11
63.8720685
21
17.3632675
0
ENDSEC
0
EOF