0
SECTION
2
HEADER
0
ENDSEC
0
SECTION
2
TABLES
0
TABLE
2
LTYPE
0
LTYPE
72
65
70
64
2
CONTINUOUS
3
______
73
0
40
0
0
ENDTAB
0
TABLE
2
LAYER
0
LAYER
2
DEFAULT_255_2_778
70
0
62
255
6
CONTINUOUS
0
LAYER
2
DEFAULT_4_2_778
70
0
62
4
6
CONTINUOUS
0
ENDTAB
0
ENDSEC
0
SECTION
2
ENTITIES
0
LINE
8
DEFAULT_255_2_778
10
11.1621223
20
35.9667959
11
29.7656374
21
35.9667959
0
LINE
8
DEFAULT_255_2_778
10
29.7656374
20
35.9667959
11
29.7656374
21
8.6816404
0
LINE
8
DEFAULT_255_2_778
10
29.7656374
20
8.6816404
11
11.1621223
21
8.6816404
0
LINE
8
DEFAULT_255_2_778
10
11.1621223
20
8.6816404
11
11.1621223
21
35.9667959
0
LINE
8
DEFAULT_255_2_778
10
21.0839838
20
16.1230464
11
23.5644525
21
8.6816404
0
LINE
8
DEFAULT_255_2_778
10
23.5644525
20
8.6816404
11
26.0449212
21
16.1230464
0
LINE
8
DEFAULT_255_2_778
10
26.0449212
20
16.1230464
11
21.0839838
21
16.1230464
0
LINE
8
DEFAULT_255_2_778
10
14.8828121
20
28.5253898
11
17.3632808
21
35.9667959
0
LINE
8
DEFAULT_255_2_778
10
17.3632808
20
35.9667959
11
19.8437494
21
28.5253898
0
LINE
8
DEFAULT_255_2_778
10
19.8437494
20
28.5253898
11
14.8828121
21
28.5253898
0
LINE
8
DEFAULT_255_2_778
10
17.363294
20
35.9667959
11
17.363294
21
8.6816404
0
LINE
8
DEFAULT_255_2_778
10
23.5644657
20
35.9667959
11
23.5644657
21
8.6816404
0
LINE
8
DEFAULT_255_2_778
10
29.7656374
20
35.9667959
11
48.3691525
21
35.9667959
0
LINE
8
DEFAULT_255_2_778
10
48.3691525
20
35.9667959
11
48.3691525
21
8.6816404
0
LINE
8
DEFAULT_255_2_778
10
48.3691525
20
8.6816404
11
29.7656374
21
8.6816404
0
LINE
8
DEFAULT_255_2_778
10
29.7656374
20
8.6816404
11
29.7656374
21
35.9667959
0
LINE
8
DEFAULT_255_2_778
10
34.7265615
20
17.3632808
11
34.7265615
21
-6.2011717
0
LINE
8
DEFAULT_255_2_778
10
43.4082019
20
17.3632808
11
43.4082019
21
-6.2011717
0
LINE
8
DEFAULT_255_2_778
10
48.3691393
20
35.9667959
11
66.9726544
21
35.9667959
0
LINE
8
DEFAULT_255_2_778
10
66.9726544
20
35.9667959
11
66.9726544
21
8.6816404
0
LINE
8
DEFAULT_255_2_778
10
66.9726544
20
8.6816404
11
48.3691393
21
8.6816404
0
LINE
8
DEFAULT_255_2_778
10
48.3691393
20
8.6816404
11
48.3691393
21
35.9667959
0
LINE
8
DEFAULT_255_2_778
10
53.3300899
20
35.9667959
11
62.0117303
21
8.6816404
0
LINE
8
DEFAULT_255_2_778
10
62.0117303
20
35.9667959
11
53.3300899
21
8.6816404
0
LINE
8
DEFAULT_255_2_778
10
62.0117236
20
35.9667959
11
62.0117236
21
28.5253898
0
LINE
8
DEFAULT_255_2_778
10
62.0117236
20
28.5253898
11
57.6709034
21
29.7656242
0
LINE
8
DEFAULT_255_2_778
10
57.6709034
20
29.7656242
11
62.0117236
21
35.9667959
0
LINE
8
DEFAULT_255_2_778
10
62.0117236
20
8.6816404
11
62.0117236
21
16.1230464
0
LINE
8
DEFAULT_255_2_778
10
62.0117236
20
16.1230464
11
57.6709034
21
14.8828121
0
LINE
8
DEFAULT_255_2_778
10
57.6709034
20
14.8828121
11
62.0117236
21
8.6816404
0
LINE
8
DEFAULT_4_2_778
10
40.9277332
20
-6.2011717
11
45.8886706
21
-6.2011717
0
LINE
8
DEFAULT_4_2_778
10
43.4082151
20
-8.6816404
11
43.4082151
21
-6.2011717
0
LINE
8
DEFAULT_4_2_778
10
32.2461061
20
-6.2011717
11
37.2070434
21
-6.2011717
0
LINE
8
DEFAULT_4_2_778
10
34.7265615
20
-8.6816404
11
34.7265615
21
-6.2011717
0
LINE
8
DEFAULT_255_2_778
10
32.2460929
20
17.3632808
11
37.2070302
21
17.3632808
0
LINE
8
DEFAULT_255_2_778
10
34.7265615
20
27.2851423
11
34.7265615
21
50.8495947
0
LINE
8
DEFAULT_255_2_778
10
32.2460929
20
27.2851555
11
37.2070302
21
27.2851555
0
LINE
8
DEFAULT_255_2_778
10
43.4082019
20
27.2851423
11
43.4082019
21
50.8495947
0
LINE
8
DEFAULT_255_2_778
10
40.9277332
20
27.2851555
11
45.8886706
21
27.2851555
0
LINE
8
DEFAULT_255_2_778
10
40.9277465
20
17.3632675
11
45.8886838
21
17.3632675
0
LINE
8
DEFAULT_255_2_778
10
11.1621223
20
11.1620958
11
4.9609506
21
11.1620958
0
LINE
8
DEFAULT_255_2_778
10
11.1621223
20
16.1230464
11
4.9609506
21
16.1230464
0
LINE
8
DEFAULT_255_2_778
10
4.9609506
20
8.6816404
11
4.9609506
21
18.6035151
0
ARC
8
0
10
4.9580383
20
19.8466399
40
1.2373387
50
147.4065307
51
180.1338448
0
ARC
8
0
10
4.9575742
20
19.8471259
40
1.2366858
50
96.4511543
51
147.4139177
0
ARC
8
0
10
4.9606523
20
19.8197248
40
1.264259
50
89.9870789
51
96.4502438
0
ARC
8
0
10
4.963828
20
19.8466503
40
1.2373368
50
57.4064547
51
90.1338528
0
ARC
8
0
10
4.9643127
20
19.8471123
40
1.2366867
50
6.4511526
51
57.4138476
0
ARC
8
0
10
4.9369205
20
19.8440347
40
1.2642513
50
359.9870722
51
6.4502645
0
ARC
8
0
10
4.9638364
20
19.840859
40
1.2373387
50
327.4065307
51
0.1338448
0
ARC
8
0
10
4.9643006
20
19.840373
40
1.2366858
50
276.4511543
51
327.4139177
0
ARC
8
0
10
4.9612225
20
19.8677741
40
1.264259
50
269.9870789
51
276.4502438
0
ARC
8
0
10
4.9580467
20
19.8408485
40
1.2373368
50
237.4064547
51
270.1338528
0
ARC
8
0
10
4.957562
20
19.8403866
40
1.2366867
50
186.4511526
51
237.4138476
0
ARC
8
0
10
4.9849542
20
19.8434642
40
1.2642513
50
179.9870722
51
186.4502645
0
LINE
8
DEFAULT_255_2_778
10
3.720703
20
19.8437494
11
3.720703
21
19.8437494
0
LINE
8
DEFAULT_255_2_778
10
66.9726676
20
16.1230464
11
68.212902
21
16.1230464
0
LINE
8
DEFAULT_255_2_778
10
68.212902
20
16.1230464
11
69.4531363
21
13.6425777
0
LINE
8
DEFAULT_255_2_778
10
69.4531363
20
13.6425777
11
70.6933706
21
16.1230464
0
LINE
8
DEFAULT_255_2_778
10
70.6933706
20
16.1230464
11
71.933605
21
16.1230464
0
LINE
8
DEFAULT_255_2_778
10
71.933605
20
16.1230464
11
73.1738393
21
13.6425777
0
LINE
8
DEFAULT_255_2_778
10
73.1738393
20
13.6425777
11
74.4140737
21
16.1230464
0
LINE
8
DEFAULT_255_2_778
10
74.4140737
20
16.1230464
11
75.654308
21
16.1230464
0
LINE
8
DEFAULT_255_2_778
10
75.654308
20
16.1230464
11
75.654308
21
8.6816404
0
LINE
8
DEFAULT_255_2_778
10
75.654308
20
8.6816404
11
66.9726676
21
8.6816404
0
LINE
8
DEFAULT_255_2_778
10
70.6933706
20
18.6035151
11
70.6933706
21
21.0839838
0
LINE
8
DEFAULT_4_2_778
10
32.2460929
20
50.849608
11
37.2070302
21
50.849608
0
LINE
8
DEFAULT_4_2_778
10
34.7265615
20
53.3300766
11
34.7265615
21
50.849608
0
LINE
8
DEFAULT_4_2_778
10
40.9277332
20
50.849608
11
45.8886706
21
50.849608
0
LINE
8
DEFAULT_4_2_778
10
43.4082019
20
53.3300766
11
43.4082019
21
50.849608
0
ENDSEC
0
EOF