0
SECTION
2
HEADER
0
ENDSEC
0
SECTION
2
TABLES
0
TABLE
2
LTYPE
0
LTYPE
72
65
70
64
2
CONTINUOUS
3
______
73
0
40
0
0
ENDTAB
0
TABLE
2
LAYER
0
LAYER
2
DEFAULT_255_2_778
70
0
62
255
6
CONTINUOUS
0
LAYER
2
DEFAULT_4_2_778
70
0
62
4
6
CONTINUOUS
0
ENDTAB
0
ENDSEC
0
SECTION
2
ENTITIES
0
LINE
8
DEFAULT_255_2_778
10
62.011717
20
11.1621091
11
47.1289049
21
11.1621091
0
LINE
8
DEFAULT_255_2_778
10
47.1289049
20
11.1621091
11
47.1289049
21
33.4863272
0
LINE
8
DEFAULT_255_2_778
10
47.1289049
20
33.4863272
11
62.011717
21
33.4863272
0
LINE
8
DEFAULT_255_2_778
10
62.011717
20
33.4863272
11
62.011717
21
11.1621091
0
LINE
8
DEFAULT_255_2_778
10
49.6093736
20
27.2851423
11
52.0898423
21
33.486314
0
LINE
8
DEFAULT_255_2_778
10
52.0898423
20
33.486314
11
54.570311
21
27.2851423
0
LINE
8
DEFAULT_255_2_778
10
54.570311
20
27.2851423
11
49.6093736
21
27.2851423
0
LINE
8
DEFAULT_255_2_778
10
52.0898423
20
11.1621091
11
52.0898423
21
33.4863272
0
LINE
8
DEFAULT_255_2_778
10
54.570311
20
17.3632675
11
57.0507797
21
11.1620958
0
LINE
8
DEFAULT_255_2_778
10
57.0507797
20
11.1620958
11
59.5312483
21
17.3632675
0
LINE
8
DEFAULT_255_2_778
10
59.5312483
20
17.3632675
11
54.570311
21
17.3632675
0
LINE
8
DEFAULT_255_2_778
10
57.0507797
20
33.4863272
11
57.0507797
21
11.1621091
0
LINE
8
DEFAULT_255_2_778
10
47.1289049
20
11.1621091
11
32.2460929
21
11.1621091
0
LINE
8
DEFAULT_255_2_778
10
32.2460929
20
11.1621091
11
32.2460929
21
33.4863272
0
LINE
8
DEFAULT_255_2_778
10
32.2460929
20
33.4863272
11
47.1289049
21
33.4863272
0
LINE
8
DEFAULT_255_2_778
10
47.1289049
20
33.4863272
11
47.1289049
21
11.1621091
0
LINE
8
DEFAULT_255_2_778
10
43.4082019
20
-6.2011717
11
43.4082019
21
18.6035151
0
LINE
8
DEFAULT_255_2_778
10
44.6484495
20
18.6035151
11
42.1679808
21
18.6035151
0
LINE
8
DEFAULT_255_2_778
10
35.9668091
20
-6.2011717
11
35.9668091
21
18.6035151
0
LINE
8
DEFAULT_255_2_778
10
34.7265615
20
18.6035151
11
37.2070302
21
18.6035151
0
LINE
8
DEFAULT_255_2_778
10
44.6484363
20
26.0449212
11
42.1679676
21
26.0449212
0
LINE
8
DEFAULT_255_2_778
10
37.8271474
20
26.0449212
11
34.7265615
21
26.0449212
0
LINE
8
DEFAULT_255_2_778
10
35.9667959
20
26.0449212
11
35.9667959
21
50.849608
0
LINE
8
DEFAULT_255_2_778
10
43.4082019
20
26.0449212
11
43.4082019
21
50.849608
0
LINE
8
DEFAULT_255_2_778
10
32.2460929
20
11.1621091
11
17.3632808
21
11.1621091
0
LINE
8
DEFAULT_255_2_778
10
17.3632808
20
11.1621091
11
17.3632808
21
33.4863272
0
LINE
8
DEFAULT_255_2_778
10
17.3632808
20
33.4863272
11
32.2460929
21
33.4863272
0
LINE
8
DEFAULT_255_2_778
10
32.2460929
20
33.4863272
11
32.2460929
21
11.1621091
0
LINE
8
DEFAULT_255_2_778
10
19.8437494
20
33.4863272
11
29.7656242
21
11.1621091
0
LINE
8
DEFAULT_255_2_778
10
19.8437494
20
11.1621091
11
29.7656242
21
33.4863272
0
LINE
8
DEFAULT_255_2_778
10
29.7656308
20
33.486314
11
29.1455136
21
27.2851423
0
LINE
8
DEFAULT_255_2_778
10
29.1455136
20
27.2851423
11
25.4248106
21
28.5253766
0
LINE
8
DEFAULT_255_2_778
10
25.4248106
20
28.5253766
11
29.7656308
21
33.486314
0
LINE
8
DEFAULT_255_2_778
10
29.7656308
20
11.1620958
11
29.1455136
21
17.3632675
0
LINE
8
DEFAULT_255_2_778
10
29.1455136
20
17.3632675
11
25.4248106
21
16.1230332
0
LINE
8
DEFAULT_255_2_778
10
25.4248106
20
16.1230332
11
29.7656308
21
11.1620958
0
LINE
8
DEFAULT_4_2_778
10
33.4863272
20
-6.2011717
11
38.4472646
21
-6.2011717
0
LINE
8
DEFAULT_4_2_778
10
35.9667959
20
-8.6816404
11
35.9667959
21
-6.2011717
0
LINE
8
DEFAULT_4_2_778
10
40.9277332
20
-6.2011717
11
45.8886706
21
-6.2011717
0
LINE
8
DEFAULT_4_2_778
10
43.4082019
20
-8.6816404
11
43.4082019
21
-6.2011717
0
LINE
8
DEFAULT_4_2_778
10
33.4863272
20
50.849608
11
38.4472646
21
50.849608
0
LINE
8
DEFAULT_4_2_778
10
35.9667959
20
53.3300766
11
35.9667959
21
50.849608
0
LINE
8
DEFAULT_4_2_778
10
40.9277332
20
50.849608
11
45.8886706
21
50.849608
0
LINE
8
DEFAULT_4_2_778
10
43.4082019
20
53.3300766
11
43.4082019
21
50.849608
0
LINE
8
DEFAULT_255_2_778
10
12.4023434
20
18.6035151
11
17.3632808
21
18.6035151
0
LINE
8
DEFAULT_255_2_778
10
17.3632808
20
18.6035151
11
17.3632808
21
11.1621091
0
LINE
8
DEFAULT_255_2_778
10
17.3632808
20
11.1621091
11
12.4023434
21
11.1621091
0
LINE
8
DEFAULT_255_2_778
10
12.4023434
20
11.1621091
11
12.4023434
21
18.6035151
0
LINE
8
DEFAULT_255_2_778
10
10.5420051
20
25.4247974
11
17.363294
21
8.0615166
0
LINE
8
DEFAULT_255_2_778
10
8.6816536
20
27.2851489
11
9.921888
21
33.4863206
0
LINE
8
DEFAULT_255_2_778
10
9.921888
20
33.4863206
11
11.1621223
21
27.2851489
0
LINE
8
DEFAULT_255_2_778
10
11.1621223
20
27.2851489
11
12.4023566
21
33.4863206
0
LINE
8
DEFAULT_255_2_778
10
12.4023566
20
33.4863206
11
13.642591
21
27.2851489
0
LINE
8
DEFAULT_255_2_778
10
13.642591
20
27.2851489
11
14.8828253
21
33.4863206
0
LINE
8
DEFAULT_255_2_778
10
14.8828253
20
33.4863206
11
16.1230597
21
27.2851489
0
LINE
8
DEFAULT_255_2_778
10
16.1230597
20
27.2851489
11
17.363294
21
33.4863206
0
LINE
8
DEFAULT_255_2_778
10
10.5419919
20
25.424804
11
11.1621091
21
19.2236323
0
LINE
8
DEFAULT_255_2_778
10
11.1621091
20
19.2236323
11
14.2626949
21
21.0839838
0
LINE
8
DEFAULT_255_2_778
10
14.2626949
20
21.0839838
11
10.5419919
21
25.424804
0
LINE
8
DEFAULT_255_2_778
10
62.011717
20
18.6035151
11
66.9726544
21
18.6035151
0
LINE
8
DEFAULT_255_2_778
10
66.9726544
20
18.6035151
11
66.9726544
21
11.1621091
0
LINE
8
DEFAULT_255_2_778
10
66.9726544
20
11.1621091
11
62.011717
21
11.1621091
0
LINE
8
DEFAULT_255_2_778
10
62.011717
20
11.1621091
11
62.011717
21
18.6035151
0
LINE
8
DEFAULT_255_2_778
10
68.8330191
20
25.4247974
11
62.0117303
21
8.0615166
0
LINE
8
DEFAULT_255_2_778
10
70.6933706
20
27.2851489
11
69.4531363
21
33.4863206
0
LINE
8
DEFAULT_255_2_778
10
69.4531363
20
33.4863206
11
68.212902
21
27.2851489
0
LINE
8
DEFAULT_255_2_778
10
68.212902
20
27.2851489
11
66.9726676
21
33.4863206
0
LINE
8
DEFAULT_255_2_778
10
66.9726676
20
33.4863206
11
65.7324333
21
27.2851489
0
LINE
8
DEFAULT_255_2_778
10
65.7324333
20
27.2851489
11
64.4921989
21
33.4863206
0
LINE
8
DEFAULT_255_2_778
10
64.4921989
20
33.4863206
11
63.2519646
21
27.2851489
0
LINE
8
DEFAULT_255_2_778
10
63.2519646
20
27.2851489
11
62.0117303
21
33.4863206
0
LINE
8
DEFAULT_255_2_778
10
68.8330059
20
25.424804
11
68.2128887
21
19.2236323
0
LINE
8
DEFAULT_255_2_778
10
68.2128887
20
19.2236323
11
65.1123029
21
21.0839838
0
LINE
8
DEFAULT_255_2_778
10
65.1123029
20
21.0839838
11
68.8330059
21
25.424804
0
LINE
8
DEFAULT_255_2_778
10
17.983388
20
35.9667959
11
62.0117071
21
35.9667959
0
LINE
8
DEFAULT_255_2_778
10
17.3632708
20
8.6816404
11
62.3217657
21
8.6816404
0
ENDSEC
0
EOF