0
SECTION
2
HEADER
0
ENDSEC
0
SECTION
2
TABLES
0
TABLE
2
LTYPE
0
LTYPE
72
65
70
64
2
CONTINUOUS
3
______
73
0
40
0
0
ENDTAB
0
TABLE
2
LAYER
0
LAYER
2
DEFAULT_255_2_778
70
0
62
255
6
CONTINUOUS
0
LAYER
2
DEFAULT_4_2_778
70
0
62
4
6
CONTINUOUS
0
ENDTAB
0
ENDSEC
0
SECTION
2
ENTITIES
0
LINE
8
DEFAULT_255_2_778
10
69.4531231
20
8.6816404
11
54.570311
21
8.6816404
0
LINE
8
DEFAULT_255_2_778
10
54.570311
20
8.6816404
11
54.570311
21
33.4863272
0
LINE
8
DEFAULT_255_2_778
10
54.570311
20
33.4863272
11
69.4531231
21
33.4863272
0
LINE
8
DEFAULT_255_2_778
10
69.4531231
20
33.4863272
11
69.4531231
21
8.6816404
0
LINE
8
DEFAULT_255_2_778
10
57.0507797
20
33.4863272
11
66.9726544
21
8.6816404
0
LINE
8
DEFAULT_255_2_778
10
57.0507797
20
8.6816404
11
66.9726544
21
33.4863272
0
LINE
8
DEFAULT_255_2_778
10
66.9726676
20
33.486314
11
66.3525504
21
27.2851423
0
LINE
8
DEFAULT_255_2_778
10
66.3525504
20
27.2851423
11
63.2519646
21
28.5253766
0
LINE
8
DEFAULT_255_2_778
10
63.2519646
20
28.5253766
11
66.9726676
21
33.486314
0
LINE
8
DEFAULT_255_2_778
10
32.2460929
20
8.6816404
11
17.3632808
21
8.6816404
0
LINE
8
DEFAULT_255_2_778
10
17.3632808
20
8.6816404
11
17.3632808
21
33.4863272
0
LINE
8
DEFAULT_255_2_778
10
17.3632808
20
33.4863272
11
32.2460929
21
33.4863272
0
LINE
8
DEFAULT_255_2_778
10
32.2460929
20
33.4863272
11
32.2460929
21
8.6816404
0
LINE
8
DEFAULT_255_2_778
10
19.8437494
20
27.2851423
11
22.3242181
21
33.486314
0
LINE
8
DEFAULT_255_2_778
10
22.3242181
20
33.486314
11
24.8046868
21
27.2851423
0
LINE
8
DEFAULT_255_2_778
10
24.8046868
20
27.2851423
11
19.8437494
21
27.2851423
0
LINE
8
DEFAULT_255_2_778
10
22.3242181
20
8.6816404
11
22.3242181
21
33.4863272
0
LINE
8
DEFAULT_255_2_778
10
24.8046868
20
14.8827989
11
27.2851555
21
8.6816272
0
LINE
8
DEFAULT_255_2_778
10
27.2851555
20
8.6816272
11
29.7656242
21
14.8827989
0
LINE
8
DEFAULT_255_2_778
10
29.7656242
20
14.8827989
11
24.8046868
21
14.8827989
0
LINE
8
DEFAULT_255_2_778
10
27.2851555
20
33.4863272
11
27.2851555
21
8.6816404
0
LINE
8
DEFAULT_255_2_778
10
40.9277332
20
27.2851423
11
43.4082019
21
33.486314
0
LINE
8
DEFAULT_255_2_778
10
43.4082019
20
33.486314
11
45.8886706
21
27.2851423
0
LINE
8
DEFAULT_255_2_778
10
45.8886706
20
27.2851423
11
40.9277332
21
27.2851423
0
LINE
8
DEFAULT_255_2_778
10
47.1289049
20
14.8827989
11
49.6093736
21
8.6816272
0
LINE
8
DEFAULT_255_2_778
10
49.6093736
20
8.6816272
11
52.0898423
21
14.8827989
0
LINE
8
DEFAULT_255_2_778
10
52.0898423
20
14.8827989
11
47.1289049
21
14.8827989
0
LINE
8
DEFAULT_255_2_778
10
34.7265615
20
26.0449212
11
39.6874989
21
26.0449212
0
LINE
8
DEFAULT_255_2_778
10
37.2070302
20
26.0449212
11
37.2070302
21
50.849608
0
LINE
8
DEFAULT_255_2_778
10
47.1289049
20
26.0449212
11
52.0898423
21
26.0449212
0
LINE
8
DEFAULT_255_2_778
10
49.6093868
20
26.0449212
11
49.6093868
21
50.849608
0
LINE
8
DEFAULT_255_2_778
10
43.4082151
20
-6.2011717
11
43.4082151
21
50.849608
0
LINE
8
DEFAULT_255_2_778
10
49.6093868
20
-6.2011717
11
49.6093868
21
21.0839838
0
LINE
8
DEFAULT_255_2_778
10
49.6093868
20
21.0839838
11
43.4082151
21
21.0839838
0
LINE
8
DEFAULT_255_2_778
10
66.9726676
20
8.6816272
11
66.3525504
21
14.8827989
0
LINE
8
DEFAULT_255_2_778
10
66.3525504
20
14.8827989
11
63.2519646
21
13.6425645
0
LINE
8
DEFAULT_255_2_778
10
63.2519646
20
13.6425645
11
66.9726676
21
8.6816272
0
LINE
8
DEFAULT_255_2_778
10
32.2460929
20
33.4863272
11
54.570311
21
33.4863272
0
LINE
8
DEFAULT_255_2_778
10
54.570311
20
33.4863272
11
54.570311
21
8.6816404
0
LINE
8
DEFAULT_255_2_778
10
54.570311
20
8.6816404
11
32.2460929
21
8.6816404
0
LINE
8
DEFAULT_255_2_778
10
32.2460929
20
8.6816404
11
32.2460929
21
33.4863272
0
LINE
8
DEFAULT_4_2_778
10
34.7265615
20
50.849608
11
39.6874989
21
50.849608
0
LINE
8
DEFAULT_4_2_778
10
37.2070302
20
53.3300766
11
37.2070302
21
50.849608
0
LINE
8
DEFAULT_4_2_778
10
40.9277332
20
50.849608
11
45.8886706
21
50.849608
0
LINE
8
DEFAULT_4_2_778
10
43.4082019
20
53.3300766
11
43.4082019
21
50.849608
0
LINE
8
DEFAULT_4_2_778
10
47.1289049
20
50.849608
11
52.0898423
21
50.849608
0
LINE
8
DEFAULT_4_2_778
10
49.6093736
20
53.3300766
11
49.6093736
21
50.849608
0
LINE
8
DEFAULT_4_2_778
10
40.9277332
20
-6.2011717
11
45.8886706
21
-6.2011717
0
LINE
8
DEFAULT_4_2_778
10
43.4082151
20
-8.6816404
11
43.4082151
21
-6.2011717
0
LINE
8
DEFAULT_4_2_778
10
47.1289182
20
-6.2011717
11
52.0898555
21
-6.2011717
0
LINE
8
DEFAULT_4_2_778
10
49.6093736
20
-8.6816404
11
49.6093736
21
-6.2011717
0
LINE
8
DEFAULT_255_2_778
10
17.363294
20
11.1621091
11
11.1621223
21
11.1621091
0
LINE
8
DEFAULT_255_2_778
10
17.363294
20
16.1230464
11
11.1621223
21
16.1230464
0
LINE
8
DEFAULT_255_2_778
10
11.1621091
20
8.6816404
11
11.1621091
21
18.6035151
0
ARC
8
0
10
11.1592079
20
19.8466402
40
1.2373366
50
147.4064861
51
180.1338596
0
ARC
8
0
10
11.1587463
20
19.8471253
40
1.2366863
50
96.4511647
51
147.4138983
0
ARC
8
0
10
11.1618238
20
19.819731
40
1.2642529
50
89.9870721
51
96.4502643
0
ARC
8
0
10
11.1649995
20
19.8466504
40
1.2373368
50
57.4064552
51
90.1338443
0
ARC
8
0
10
11.1654849
20
19.8471125
40
1.2366862
50
6.4511465
51
57.4138698
0
ARC
8
0
10
11.1380922
20
19.8440347
40
1.2642513
50
359.9870722
51
6.4502645
0
ARC
8
0
10
11.1650102
20
19.8408587
40
1.2373366
50
327.4064861
51
0.1338596
0
ARC
8
0
10
11.1654719
20
19.8403736
40
1.2366863
50
276.4511647
51
327.4138983
0
ARC
8
0
10
11.1623943
20
19.8677679
40
1.2642529
50
269.9870721
51
276.4502643
0
ARC
8
0
10
11.1592186
20
19.8408485
40
1.2373368
50
237.4064552
51
270.1338443
0
ARC
8
0
10
11.1587332
20
19.8403864
40
1.2366862
50
186.4511465
51
237.4138698
0
ARC
8
0
10
11.1861259
20
19.8434642
40
1.2642513
50
179.9870722
51
186.4502645
0
LINE
8
DEFAULT_255_2_778
10
9.9218747
20
19.8437494
11
9.9218747
21
19.8437494
0
ENDSEC
0
EOF