0
SECTION
2
HEADER
0
ENDSEC
0
SECTION
2
TABLES
0
TABLE
2
LTYPE
0
LTYPE
72
65
70
64
2
CONTINUOUS
3
______
73
0
40
0
0
ENDTAB
0
TABLE
2
LAYER
0
LAYER
2
DEFAULT_255_2_778
70
0
62
255
6
CONTINUOUS
0
LAYER
2
DEFAULT_4_2_778
70
0
62
4
6
CONTINUOUS
0
ENDTAB
0
ENDSEC
0
SECTION
2
ENTITIES
0
LINE
8
DEFAULT_255_2_778
10
39.6874989
20
6.2011717
11
19.8437494
21
6.2011717
0
LINE
8
DEFAULT_255_2_778
10
19.8437494
20
6.2011717
11
19.8437494
21
38.4472646
0
LINE
8
DEFAULT_255_2_778
10
19.8437494
20
38.4472646
11
39.6874989
21
38.4472646
0
LINE
8
DEFAULT_255_2_778
10
39.6874989
20
38.4472646
11
39.6874989
21
6.2011717
0
LINE
8
DEFAULT_255_2_778
10
29.7656242
20
38.4472513
11
29.7656242
21
29.7656109
0
LINE
8
DEFAULT_255_2_778
10
27.2851555
20
29.7656242
11
32.2460929
21
29.7656242
0
LINE
8
DEFAULT_255_2_778
10
29.7656242
20
6.2011585
11
29.7656242
21
14.8827989
0
LINE
8
DEFAULT_255_2_778
10
27.2851555
20
14.8828121
11
32.2460929
21
14.8828121
0
LINE
8
DEFAULT_255_2_778
10
59.5312483
20
6.2011717
11
39.6874989
21
6.2011717
0
LINE
8
DEFAULT_255_2_778
10
39.6874989
20
6.2011717
11
39.6874989
21
38.4472646
0
LINE
8
DEFAULT_255_2_778
10
39.6874989
20
38.4472646
11
59.5312483
21
38.4472646
0
LINE
8
DEFAULT_255_2_778
10
59.5312483
20
38.4472646
11
59.5312483
21
6.2011717
0
LINE
8
DEFAULT_255_2_778
10
11.1621223
20
6.2011585
11
2.4804819
21
6.2011585
0
LINE
8
DEFAULT_255_2_778
10
2.4804819
20
6.2011585
11
2.4804819
21
17.3632675
0
LINE
8
DEFAULT_255_2_778
10
2.4804819
20
17.3632675
11
11.1621223
21
17.3632675
0
LINE
8
DEFAULT_255_2_778
10
11.1621223
20
17.3632675
11
11.1621223
21
6.2011585
0
LINE
8
DEFAULT_255_2_778
10
3.7207163
20
6.2011585
11
9.921888
21
17.3632675
0
LINE
8
DEFAULT_255_2_778
10
11.1621223
20
31.0058585
11
19.8437627
21
31.0058585
0
LINE
8
DEFAULT_255_2_778
10
19.8437627
20
31.0058585
11
19.8437627
21
6.2011717
0
LINE
8
DEFAULT_255_2_778
10
19.8437627
20
6.2011717
11
11.1621223
21
6.2011717
0
LINE
8
DEFAULT_255_2_778
10
11.1621223
20
6.2011717
11
11.1621223
21
31.0058585
0
LINE
8
DEFAULT_255_2_778
10
11.1621223
20
31.0058585
11
16.1230597
21
18.6035151
0
LINE
8
DEFAULT_255_2_778
10
16.1230597
20
18.6035151
11
11.1621223
21
6.2011717
0
LINE
8
DEFAULT_255_2_778
10
2.4804819
20
33.4863272
11
2.4804819
21
22.3242181
0
LINE
8
DEFAULT_255_2_778
10
11.1621223
20
31.0058453
11
2.4804819
21
31.0058453
0
LINE
8
DEFAULT_255_2_778
10
2.4804819
20
24.8046736
11
11.1621223
21
24.8046736
0
LINE
8
DEFAULT_255_2_778
10
47.1289049
20
31.0058585
11
49.6093736
21
38.4472646
0
LINE
8
DEFAULT_255_2_778
10
49.6093736
20
38.4472646
11
52.0898423
21
31.0058585
0
LINE
8
DEFAULT_255_2_778
10
52.0898423
20
31.0058585
11
47.1289049
21
31.0058585
0
LINE
8
DEFAULT_255_2_778
10
49.6093736
20
-6.2011717
11
49.6093736
21
50.849608
0
LINE
8
DEFAULT_4_2_778
10
47.1289049
20
50.849608
11
52.0898423
21
50.849608
0
LINE
8
DEFAULT_4_2_778
10
49.6093736
20
53.3300766
11
49.6093736
21
50.849608
0
LINE
8
DEFAULT_4_2_778
10
47.1289049
20
-6.2011717
11
52.0898423
21
-6.2011717
0
LINE
8
DEFAULT_4_2_778
10
49.6093736
20
-8.6816404
11
49.6093736
21
-6.2011717
0
LINE
8
DEFAULT_255_2_778
10
59.5312616
20
31.0058585
11
68.212902
21
31.0058585
0
LINE
8
DEFAULT_255_2_778
10
68.212902
20
31.0058585
11
68.212902
21
6.2011717
0
LINE
8
DEFAULT_255_2_778
10
68.212902
20
6.2011717
11
59.5312616
21
6.2011717
0
LINE
8
DEFAULT_255_2_778
10
59.5312616
20
6.2011717
11
59.5312616
21
31.0058585
0
LINE
8
DEFAULT_255_2_778
10
68.2128887
20
31.0058585
11
63.2519514
21
18.6035151
0
LINE
8
DEFAULT_255_2_778
10
63.2519514
20
18.6035151
11
68.2128887
21
6.2011717
0
LINE
8
DEFAULT_255_2_778
10
76.8945423
20
6.2011585
11
68.212902
21
6.2011585
0
LINE
8
DEFAULT_255_2_778
10
68.212902
20
6.2011585
11
68.212902
21
17.3632675
0
LINE
8
DEFAULT_255_2_778
10
68.212902
20
17.3632675
11
76.8945423
21
17.3632675
0
LINE
8
DEFAULT_255_2_778
10
76.8945423
20
17.3632675
11
76.8945423
21
6.2011585
0
LINE
8
DEFAULT_255_2_778
10
75.654308
20
6.2011585
11
69.4531363
21
17.3632675
0
LINE
8
DEFAULT_255_2_778
10
76.8945291
20
33.486314
11
76.8945291
21
22.3242049
0
LINE
8
DEFAULT_255_2_778
10
68.212902
20
31.0058453
11
76.8945423
21
31.0058453
0
LINE
8
DEFAULT_255_2_778
10
76.8945423
20
24.8046736
11
68.212902
21
24.8046736
0
ENDSEC
0
EOF