0
SECTION
2
HEADER
0
ENDSEC
0
SECTION
2
TABLES
0
TABLE
2
LTYPE
0
LTYPE
72
65
70
64
2
CONTINUOUS
3
______
73
0
40
0
0
ENDTAB
0
TABLE
2
LAYER
0
LAYER
2
DEFAULT_255_2_778
70
0
62
255
6
CONTINUOUS
0
LAYER
2
DEFAULT_4_2_778
70
0
62
4
6
CONTINUOUS
0
ENDTAB
0
ENDSEC
0
SECTION
2
ENTITIES
0
LINE
8
DEFAULT_255_2_778
10
65.73242
20
8.6816404
11
50.849608
21
8.6816404
0
LINE
8
DEFAULT_255_2_778
10
50.849608
20
8.6816404
11
50.849608
21
33.4863272
0
LINE
8
DEFAULT_255_2_778
10
50.849608
20
33.4863272
11
65.73242
21
33.4863272
0
LINE
8
DEFAULT_255_2_778
10
65.73242
20
33.4863272
11
65.73242
21
8.6816404
0
LINE
8
DEFAULT_255_2_778
10
53.3300766
20
33.4863272
11
63.2519514
21
8.6816404
0
LINE
8
DEFAULT_255_2_778
10
53.3300766
20
8.6816404
11
63.2519514
21
33.4863272
0
LINE
8
DEFAULT_255_2_778
10
63.2519646
20
33.486314
11
62.6318474
21
27.2851423
0
LINE
8
DEFAULT_255_2_778
10
62.6318474
20
27.2851423
11
59.5312616
21
28.5253766
0
LINE
8
DEFAULT_255_2_778
10
59.5312616
20
28.5253766
11
63.2519646
21
33.486314
0
LINE
8
DEFAULT_255_2_778
10
28.5253898
20
8.6816404
11
13.6425777
21
8.6816404
0
LINE
8
DEFAULT_255_2_778
10
13.6425777
20
8.6816404
11
13.6425777
21
33.4863272
0
LINE
8
DEFAULT_255_2_778
10
13.6425777
20
33.4863272
11
28.5253898
21
33.4863272
0
LINE
8
DEFAULT_255_2_778
10
28.5253898
20
33.4863272
11
28.5253898
21
8.6816404
0
LINE
8
DEFAULT_255_2_778
10
16.1230464
20
27.2851423
11
18.6035151
21
33.486314
0
LINE
8
DEFAULT_255_2_778
10
18.6035151
20
33.486314
11
21.0839838
21
27.2851423
0
LINE
8
DEFAULT_255_2_778
10
21.0839838
20
27.2851423
11
16.1230464
21
27.2851423
0
LINE
8
DEFAULT_255_2_778
10
18.6035151
20
8.6816404
11
18.6035151
21
33.4863272
0
LINE
8
DEFAULT_255_2_778
10
21.0839838
20
14.8827989
11
23.5644525
21
8.6816272
0
LINE
8
DEFAULT_255_2_778
10
23.5644525
20
8.6816272
11
26.0449212
21
14.8827989
0
LINE
8
DEFAULT_255_2_778
10
26.0449212
20
14.8827989
11
21.0839838
21
14.8827989
0
LINE
8
DEFAULT_255_2_778
10
23.5644525
20
33.4863272
11
23.5644525
21
8.6816404
0
LINE
8
DEFAULT_255_2_778
10
37.2070302
20
27.2851423
11
39.6874989
21
33.486314
0
LINE
8
DEFAULT_255_2_778
10
39.6874989
20
33.486314
11
42.1679676
21
27.2851423
0
LINE
8
DEFAULT_255_2_778
10
42.1679676
20
27.2851423
11
37.2070302
21
27.2851423
0
LINE
8
DEFAULT_255_2_778
10
43.4082019
20
14.8827989
11
45.8886706
21
8.6816272
0
LINE
8
DEFAULT_255_2_778
10
45.8886706
20
8.6816272
11
48.3691393
21
14.8827989
0
LINE
8
DEFAULT_255_2_778
10
48.3691393
20
14.8827989
11
43.4082019
21
14.8827989
0
LINE
8
DEFAULT_255_2_778
10
31.0058585
20
26.0449212
11
35.9667959
21
26.0449212
0
LINE
8
DEFAULT_255_2_778
10
33.4863272
20
26.0449212
11
33.4863272
21
50.849608
0
LINE
8
DEFAULT_255_2_778
10
43.4082019
20
26.0449212
11
48.3691393
21
26.0449212
0
LINE
8
DEFAULT_255_2_778
10
45.8886838
20
26.0449212
11
45.8886838
21
50.849608
0
LINE
8
DEFAULT_255_2_778
10
39.6875121
20
-6.2011717
11
39.6875121
21
50.849608
0
LINE
8
DEFAULT_255_2_778
10
45.8886838
20
-6.2011717
11
45.8886838
21
21.0839838
0
LINE
8
DEFAULT_255_2_778
10
45.8886838
20
21.0839838
11
39.6875121
21
21.0839838
0
LINE
8
DEFAULT_255_2_778
10
63.2519646
20
8.6816272
11
62.6318474
21
14.8827989
0
LINE
8
DEFAULT_255_2_778
10
62.6318474
20
14.8827989
11
59.5312616
21
13.6425645
0
LINE
8
DEFAULT_255_2_778
10
59.5312616
20
13.6425645
11
63.2519646
21
8.6816272
0
LINE
8
DEFAULT_255_2_778
10
28.5253898
20
33.4863272
11
50.849608
21
33.4863272
0
LINE
8
DEFAULT_255_2_778
10
50.849608
20
33.4863272
11
50.849608
21
8.6816404
0
LINE
8
DEFAULT_255_2_778
10
50.849608
20
8.6816404
11
28.5253898
21
8.6816404
0
LINE
8
DEFAULT_255_2_778
10
28.5253898
20
8.6816404
11
28.5253898
21
33.4863272
0
LINE
8
DEFAULT_4_2_778
10
31.0058585
20
50.849608
11
35.9667959
21
50.849608
0
LINE
8
DEFAULT_4_2_778
10
33.4863272
20
53.3300766
11
33.4863272
21
50.849608
0
LINE
8
DEFAULT_4_2_778
10
37.2070302
20
50.849608
11
42.1679676
21
50.849608
0
LINE
8
DEFAULT_4_2_778
10
39.6874989
20
53.3300766
11
39.6874989
21
50.849608
0
LINE
8
DEFAULT_4_2_778
10
43.4082019
20
50.849608
11
48.3691393
21
50.849608
0
LINE
8
DEFAULT_4_2_778
10
45.8886706
20
53.3300766
11
45.8886706
21
50.849608
0
LINE
8
DEFAULT_4_2_778
10
37.2070302
20
-6.2011717
11
42.1679676
21
-6.2011717
0
LINE
8
DEFAULT_4_2_778
10
39.6875121
20
-8.6816404
11
39.6875121
21
-6.2011717
0
LINE
8
DEFAULT_4_2_778
10
43.4082151
20
-6.2011717
11
48.3691525
21
-6.2011717
0
LINE
8
DEFAULT_4_2_778
10
45.8886706
20
-8.6816404
11
45.8886706
21
-6.2011717
0
LINE
8
DEFAULT_255_2_778
10
4.9609374
20
26.0449212
11
6.2011717
21
33.4863272
0
LINE
8
DEFAULT_255_2_778
10
6.2011717
20
33.4863272
11
7.441406
21
26.0449212
0
LINE
8
DEFAULT_255_2_778
10
7.441406
20
26.0449212
11
8.6816404
21
33.4863272
0
LINE
8
DEFAULT_255_2_778
10
8.6816404
20
33.4863272
11
9.9218747
21
26.0449212
0
LINE
8
DEFAULT_255_2_778
10
9.9218747
20
26.0449212
11
11.1621091
21
33.4863272
0
LINE
8
DEFAULT_255_2_778
10
11.1621091
20
33.4863272
11
12.4023434
21
26.0449212
0
LINE
8
DEFAULT_255_2_778
10
12.4023434
20
26.0449212
11
13.6425777
21
33.4863272
0
LINE
8
DEFAULT_255_2_778
10
3.720703
20
16.1230464
11
8.6816404
21
16.1230464
0
LINE
8
DEFAULT_255_2_778
10
8.6816404
20
16.1230464
11
8.6816404
21
8.6816404
0
LINE
8
DEFAULT_255_2_778
10
8.6816404
20
8.6816404
11
3.720703
21
8.6816404
0
LINE
8
DEFAULT_255_2_778
10
3.720703
20
8.6816404
11
3.720703
21
16.1230464
0
LINE
8
DEFAULT_255_2_778
10
8.6816536
20
4.9609241
11
2.4804819
21
23.5644392
0
LINE
8
DEFAULT_255_2_778
10
2.4804819
20
23.5644392
11
2.4804819
21
17.3632675
0
LINE
8
DEFAULT_255_2_778
10
2.4804819
20
17.3632675
11
6.2011849
21
18.3963844
0
LINE
8
DEFAULT_255_2_778
10
6.2011849
20
18.3963844
11
2.4804819
21
23.5644392
0
LINE
8
DEFAULT_255_2_778
10
8.6816404
20
16.1230464
11
13.6425777
21
16.1230464
0
LINE
8
DEFAULT_255_2_778
10
13.6425777
20
16.1230464
11
13.6425777
21
8.6816404
0
LINE
8
DEFAULT_255_2_778
10
13.6425777
20
8.6816404
11
8.6816404
21
8.6816404
0
LINE
8
DEFAULT_255_2_778
10
8.6816404
20
8.6816404
11
8.6816404
21
16.1230464
0
LINE
8
DEFAULT_255_2_778
10
8.6816404
20
16.1230464
11
11.1621091
21
12.4023434
0
LINE
8
DEFAULT_255_2_778
10
11.1621091
20
12.4023434
11
8.6816404
21
8.6816404
0
LINE
8
DEFAULT_255_2_778
10
74.4140604
20
26.0449212
11
73.1738261
21
33.4863272
0
LINE
8
DEFAULT_255_2_778
10
73.1738261
20
33.4863272
11
71.9335917
21
26.0449212
0
LINE
8
DEFAULT_255_2_778
10
71.9335917
20
26.0449212
11
70.6933574
21
33.4863272
0
LINE
8
DEFAULT_255_2_778
10
70.6933574
20
33.4863272
11
69.4531231
21
26.0449212
0
LINE
8
DEFAULT_255_2_778
10
69.4531231
20
26.0449212
11
68.2128887
21
33.4863272
0
LINE
8
DEFAULT_255_2_778
10
68.2128887
20
33.4863272
11
66.9726544
21
26.0449212
0
LINE
8
DEFAULT_255_2_778
10
66.9726544
20
26.0449212
11
65.73242
21
33.4863272
0
LINE
8
DEFAULT_255_2_778
10
70.6933574
20
16.1230464
11
75.6542948
21
16.1230464
0
LINE
8
DEFAULT_255_2_778
10
75.6542948
20
16.1230464
11
75.6542948
21
8.6816404
0
LINE
8
DEFAULT_255_2_778
10
75.6542948
20
8.6816404
11
70.6933574
21
8.6816404
0
LINE
8
DEFAULT_255_2_778
10
70.6933574
20
8.6816404
11
70.6933574
21
16.1230464
0
LINE
8
DEFAULT_255_2_778
10
70.6933706
20
4.9609241
11
76.8945423
21
23.5644392
0
LINE
8
DEFAULT_255_2_778
10
76.8945423
20
23.5644392
11
76.8945423
21
17.3632675
0
LINE
8
DEFAULT_255_2_778
10
76.8945423
20
17.3632675
11
73.1738393
21
18.3963844
0
LINE
8
DEFAULT_255_2_778
10
73.1738393
20
18.3963844
11
76.8945423
21
23.5644392
0
LINE
8
DEFAULT_255_2_778
10
65.73242
20
16.1230464
11
70.6933574
21
16.1230464
0
LINE
8
DEFAULT_255_2_778
10
70.6933574
20
16.1230464
11
70.6933574
21
8.6816404
0
LINE
8
DEFAULT_255_2_778
10
70.6933574
20
8.6816404
11
65.73242
21
8.6816404
0
LINE
8
DEFAULT_255_2_778
10
65.73242
20
8.6816404
11
65.73242
21
16.1230464
0
LINE
8
DEFAULT_255_2_778
10
70.6933574
20
16.1230464
11
68.2128887
21
12.4023434
0
LINE
8
DEFAULT_255_2_778
10
68.2128887
20
12.4023434
11
70.6933574
21
8.6816404
0
ENDSEC
0
EOF