0
SECTION
2
HEADER
0
ENDSEC
0
SECTION
2
TABLES
0
TABLE
2
LTYPE
0
LTYPE
72
65
70
64
2
CONTINUOUS
3
______
73
0
40
0
0
ENDTAB
0
TABLE
2
LAYER
0
LAYER
2
DEFAULT_255_2_778
70
0
62
255
6
CONTINUOUS
0
LAYER
2
DEFAULT_4_2_778
70
0
62
4
6
CONTINUOUS
0
ENDTAB
0
ENDSEC
0
SECTION
2
ENTITIES
0
LINE
8
DEFAULT_255_2_778
10
38.4472646
20
29.7656242
11
39.6874989
21
34.7265615
0
LINE
8
DEFAULT_255_2_778
10
39.6874989
20
34.7265615
11
40.9277332
21
29.7656242
0
LINE
8
DEFAULT_255_2_778
10
40.9277332
20
29.7656242
11
38.4472646
21
29.7656242
0
LINE
8
DEFAULT_255_2_778
10
34.7265615
20
50.849608
11
34.7265615
21
28.5253898
0
LINE
8
DEFAULT_255_2_778
10
33.4863272
20
28.5253898
11
35.9667959
21
28.5253898
0
LINE
8
DEFAULT_255_2_778
10
44.6484363
20
50.849608
11
44.6484363
21
28.5253898
0
LINE
8
DEFAULT_255_2_778
10
43.4082019
20
28.5253898
11
45.8886706
21
28.5253898
0
LINE
8
DEFAULT_255_2_778
10
43.4082019
20
14.8828121
11
44.6484363
21
9.9218747
0
LINE
8
DEFAULT_255_2_778
10
44.6484363
20
9.9218747
11
45.8886706
21
14.8828121
0
LINE
8
DEFAULT_255_2_778
10
45.8886706
20
14.8828121
11
43.4082019
21
14.8828121
0
LINE
8
DEFAULT_255_2_778
10
48.3691393
20
9.9218747
11
31.0058585
21
9.9218747
0
LINE
8
DEFAULT_255_2_778
10
31.0058585
20
9.9218747
11
31.0058585
21
34.7265615
0
LINE
8
DEFAULT_255_2_778
10
31.0058585
20
34.7265615
11
48.3691393
21
34.7265615
0
LINE
8
DEFAULT_255_2_778
10
48.3691393
20
34.7265615
11
48.3691393
21
9.9218747
0
LINE
8
DEFAULT_255_2_778
10
57.0507797
20
34.7265483
11
57.0507797
21
28.5253766
0
LINE
8
DEFAULT_255_2_778
10
55.8105453
20
28.5253898
11
58.291014
21
28.5253898
0
LINE
8
DEFAULT_255_2_778
10
50.8496047
20
34.7265681
11
54.2602491
21
27.9052793
0
LINE
8
DEFAULT_255_2_778
10
63.2519514
20
34.7265615
11
63.2519514
21
29.7656242
0
LINE
8
DEFAULT_255_2_778
10
63.2519514
20
29.7656242
11
60.7714827
21
30.3857413
0
LINE
8
DEFAULT_255_2_778
10
60.7714827
20
30.3857413
11
63.2519514
21
34.7265615
0
LINE
8
DEFAULT_255_2_778
10
63.2519646
20
9.9218813
11
62.0117303
21
15.5029359
0
LINE
8
DEFAULT_255_2_778
10
62.0117303
20
15.5029359
11
59.5312616
21
14.2627015
0
LINE
8
DEFAULT_255_2_778
10
59.5312616
20
14.2627015
11
63.2519646
21
9.9218813
0
LINE
8
DEFAULT_255_2_778
10
57.0520282
20
9.9206328
11
60.6177019
21
24.338357
0
LINE
8
DEFAULT_255_2_778
10
56.120594
20
24.184563
11
63.2519414
21
9.9218681
0
ARC
8
0
10
61.2406046
20
26.9569929
40
1.2385566
50
136.1752647
51
165.1224147
0
ARC
8
0
10
61.2396985
20
26.956914
40
1.2379576
50
90.0460161
51
136.1435901
0
ARC
8
0
10
61.2383915
20
26.9515467
40
1.2433245
50
79.4238912
51
89.9855905
0
ARC
8
0
10
61.2352184
20
26.9322863
40
1.2628402
50
77.4775564
51
79.4427565
0
ARC
8
0
10
61.2327932
20
26.9214828
40
1.2739126
50
74.9981919
51
77.476429
0
ARC
8
0
10
61.2445097
20
26.9549186
40
1.2385864
50
46.1752635
51
75.1213513
0
ARC
8
0
10
61.2444669
20
26.9558564
40
1.2379396
50
0.04614
51
46.1437793
0
ARC
8
0
10
61.2390858
20
26.9571675
40
1.2433202
50
349.421263
51
359.9855174
0
ARC
8
0
10
61.2197109
20
26.960362
40
1.2629524
50
347.4746582
51
349.4401716
0
ARC
8
0
10
61.2092686
20
26.9627103
40
1.2736553
50
344.9973595
51
347.4734109
0
ARC
8
0
10
61.242454
20
26.9510213
40
1.2385782
50
316.1756209
51
345.1222594
0
ARC
8
0
10
61.2433912
20
26.9510711
40
1.2379367
50
270.0459877
51
316.1439232
0
ARC
8
0
10
61.2446977
20
26.956462
40
1.2433272
50
259.4216448
51
269.9855809
0
ARC
8
0
10
61.2478811
20
26.97576
40
1.2628818
50
257.4748299
51
259.4404017
0
ARC
8
0
10
61.2502251
20
26.9862312
40
1.2736122
50
254.9979455
51
257.4740466
0
ARC
8
0
10
61.2385695
20
26.9530846
40
1.2385813
50
226.1752382
51
255.1218388
0
ARC
8
0
10
61.2386272
20
26.9521547
40
1.2379506
50
180.045933
51
226.1435105
0
ARC
8
0
10
61.244018
20
26.9508508
40
1.2433412
50
169.4222555
51
179.9856479
0
ARC
8
0
10
61.2638494
20
26.9475634
40
1.263439
50
167.4761769
51
169.4407988
0
ARC
8
0
10
61.2737265
20
26.9453389
40
1.2735634
50
164.9982865
51
167.4748375
0
LINE
8
DEFAULT_255_2_778
10
60.0435686
20
27.2749981
11
60.0435686
21
27.2749981
0
LINE
8
DEFAULT_255_2_778
10
63.6384963
20
26.3119212
11
60.600552
21
24.5579646
0
LINE
8
DEFAULT_255_2_778
10
60.600552
20
24.5579646
11
58.8465974
21
27.5959069
0
LINE
8
DEFAULT_255_2_778
10
61.7016551
20
28.5253766
11
63.2519481
21
34.7265483
0
ARC
8
0
10
55.4173673
20
25.5706452
40
1.2543172
50
13.1336074
51
25.0377201
0
ARC
8
0
10
55.4367483
20
25.5757175
40
1.2342907
50
6.5032339
51
13.1087353
0
ARC
8
0
10
55.4393449
20
25.5760617
40
1.2316719
50
359.9994664
51
6.5010045
0
ARC
8
0
10
55.4336079
20
25.5761428
40
1.2374088
50
304.1750761
51
359.9957142
0
ARC
8
0
10
55.4223239
20
25.594582
40
1.2590031
50
294.976065
51
304.1285574
0
ARC
8
0
10
55.423072
20
25.5898006
40
1.2543537
50
283.1341733
51
295.0373055
0
ARC
8
0
10
55.4281504
20
25.5703839
40
1.234291
50
276.5042607
51
283.1094098
0
ARC
8
0
10
55.4284881
20
25.5678273
40
1.2317127
50
269.9995565
51
276.5021267
0
ARC
8
0
10
55.4285656
20
25.5735002
40
1.2373854
50
214.174604
51
269.9959674
0
ARC
8
0
10
55.4470308
20
25.5847986
40
1.2590092
50
204.975507
51
214.1279757
0
ARC
8
0
10
55.4422353
20
25.5840651
40
1.2543532
50
193.1342452
51
205.0376219
0
ARC
8
0
10
55.4227972
20
25.5789842
40
1.234269
50
186.5041986
51
193.1095952
0
ARC
8
0
10
55.4202346
20
25.5786452
40
1.2316843
50
179.9993986
51
186.5020361
0
ARC
8
0
10
55.4259447
20
25.5785705
40
1.2373945
50
124.175204
51
179.9959406
0
ARC
8
0
10
55.4372385
20
25.5601101
40
1.2590117
50
114.9761526
51
124.1285088
0
ARC
8
0
10
55.4364934
20
25.5648589
40
1.254393
50
103.1349553
51
115.0368889
0
ARC
8
0
10
55.4314209
20
25.5842487
40
1.234358
50
96.5058622
51
103.1101899
0
ARC
8
0
10
55.4310729
20
25.5868733
40
1.2317109
50
89.9994096
51
96.5036099
0
ARC
8
0
10
55.4310016
20
25.5811967
40
1.2373875
50
34.1745838
51
89.9961105
0
ARC
8
0
10
55.4125566
20
25.5699092
40
1.2589883
50
24.9754101
51
34.1280561
0
LINE
8
DEFAULT_255_2_778
10
56.5538156
20
26.1014908
11
56.5538156
21
26.1014908
0
LINE
8
DEFAULT_255_2_778
10
53.1824847
20
24.5286905
11
54.3822661
21
27.8250472
0
LINE
8
DEFAULT_255_2_778
10
54.3822661
20
27.8250472
11
57.6786168
21
26.6252739
0
LINE
8
DEFAULT_255_2_778
10
65.73242
20
9.9218747
11
48.3691393
21
9.9218747
0
LINE
8
DEFAULT_255_2_778
10
48.3691393
20
9.9218747
11
48.3691393
21
34.7265615
0
LINE
8
DEFAULT_255_2_778
10
48.3691393
20
34.7265615
11
65.73242
21
34.7265615
0
LINE
8
DEFAULT_255_2_778
10
65.73242
20
34.7265615
11
65.73242
21
9.9218747
0
LINE
8
DEFAULT_255_2_778
10
31.0058585
20
9.9218747
11
13.6425777
21
9.9218747
0
LINE
8
DEFAULT_255_2_778
10
13.6425777
20
9.9218747
11
13.6425777
21
34.7265615
0
LINE
8
DEFAULT_255_2_778
10
13.6425777
20
34.7265615
11
31.0058585
21
34.7265615
0
LINE
8
DEFAULT_255_2_778
10
31.0058585
20
34.7265615
11
31.0058585
21
9.9218747
0
LINE
8
DEFAULT_255_2_778
10
39.6874989
20
50.849608
11
39.6874989
21
-6.2011717
0
LINE
8
DEFAULT_255_2_778
10
39.6874989
20
22.3242049
11
44.6484363
21
22.3242049
0
LINE
8
DEFAULT_255_2_778
10
44.6484363
20
22.3242049
11
44.6484363
21
-6.2011849
0
LINE
8
DEFAULT_255_2_778
10
27.2851555
20
23.5644392
11
27.2851555
21
9.9218615
0
ARC
8
0
10
27.2880546
20
24.8017963
40
1.2373386
50
327.4065316
51
0.1338455
0
ARC
8
0
10
27.2885191
20
24.8013101
40
1.2366854
50
276.4511419
51
327.4139195
0
ARC
8
0
10
27.2854408
20
24.8287105
40
1.2642581
50
269.9870721
51
276.450246
0
ARC
8
0
10
27.2822648
20
24.801787
40
1.2373379
50
237.4064742
51
270.1338543
0
ARC
8
0
10
27.2817792
20
24.8013232
40
1.2366857
50
186.4511235
51
237.4138562
0
ARC
8
0
10
27.3091723
20
24.8044016
40
1.2642513
50
179.9870722
51
186.4502645
0
ARC
8
0
10
27.2822564
20
24.8075773
40
1.2373386
50
147.4065316
51
180.1338455
0
ARC
8
0
10
27.2817919
20
24.8080635
40
1.2366854
50
96.4511419
51
147.4139195
0
ARC
8
0
10
27.2848702
20
24.7806631
40
1.2642581
50
89.9870721
51
96.450246
0
ARC
8
0
10
27.2880462
20
24.8075866
40
1.2373379
50
57.4064742
51
90.1338543
0
ARC
8
0
10
27.2885318
20
24.8080504
40
1.2366857
50
6.4511235
51
57.4138562
0
ARC
8
0
10
27.2611387
20
24.8049721
40
1.2642513
50
359.9870722
51
6.4502645
0
LINE
8
DEFAULT_255_2_778
10
28.5253898
20
24.8046868
11
28.5253898
21
24.8046868
0
LINE
8
DEFAULT_255_2_778
10
24.8046868
20
24.8046868
11
27.2851555
21
27.2851555
0
LINE
8
DEFAULT_255_2_778
10
27.2851555
20
27.2851555
11
29.7656242
21
24.8046868
0
LINE
8
DEFAULT_255_2_778
10
27.2851555
20
34.7265615
11
27.2851555
21
27.2851555
0
LINE
8
DEFAULT_255_2_778
10
22.3242181
20
34.7265483
11
22.3242181
21
28.5253766
0
LINE
8
DEFAULT_255_2_778
10
21.0839838
20
28.5253898
11
23.5644525
21
28.5253898
0
ARC
8
0
10
19.1354385
20
26.038931
40
1.2603363
50
181.5752288
51
190.0203336
0
ARC
8
0
10
19.119085
20
26.0381117
40
1.2439666
50
180.0004299
51
181.558212
0
ARC
8
0
10
19.1122252
20
26.037425
40
1.237107
50
108.0435035
51
179.968626
0
ARC
8
0
10
19.1189373
20
26.0143538
40
1.2611227
50
99.9810519
51
108.0087903
0
ARC
8
0
10
19.1196595
20
26.0153257
40
1.260291
50
91.5752887
51
100.0210441
0
ARC
8
0
10
19.1188414
20
26.0315243
40
1.2440763
50
90.0004298
51
91.5581384
0
ARC
8
0
10
19.1181489
20
26.0384924
40
1.2371084
50
18.043488
51
89.9683587
0
ARC
8
0
10
19.0951344
20
26.031797
40
1.2610653
50
9.9808042
51
18.0088506
0
ARC
8
0
10
19.0960342
20
26.0310581
40
1.2603075
50
1.5752909
51
10.0209773
0
ARC
8
0
10
19.1122445
20
26.0318764
40
1.244081
50
0.0004298
51
1.5581384
0
ARC
8
0
10
19.1192268
20
26.032566
40
1.2370989
50
288.0431704
51
359.9684941
0
ARC
8
0
10
19.1125195
20
26.0556261
40
1.2611026
50
279.9806146
51
288.0084115
0
ARC
8
0
10
19.1117839
20
26.0546873
40
1.2603058
50
271.575363
51
280.0209466
0
ARC
8
0
10
19.1126043
20
26.0384486
40
1.2440506
50
270.0004298
51
271.5581568
0
ARC
8
0
10
19.113295
20
26.0315088
40
1.2371111
50
198.0436138
51
269.9684425
0
ARC
8
0
10
19.1363584
20
26.0382175
40
1.2611183
50
189.9811375
51
198.0088595
0
LINE
8
DEFAULT_255_2_778
10
17.8943273
20
25.8196355
11
17.8943273
21
25.8196355
0
LINE
8
DEFAULT_255_2_778
10
21.55896
20
26.4667357
11
19.5469019
21
23.5932233
0
LINE
8
DEFAULT_255_2_778
10
19.5469019
20
23.5932233
11
16.6733835
21
25.6052815
0
LINE
8
DEFAULT_255_2_778
10
19.6874948
20
23.2543906
11
22.3229928
21
9.9218714
0
LINE
8
DEFAULT_255_2_778
10
17.3620323
20
34.7265516
11
18.7572959
21
27.5952042
0
LINE
8
DEFAULT_255_2_778
10
26.0449212
20
14.8828121
11
27.2851555
21
9.9218747
0
LINE
8
DEFAULT_255_2_778
10
27.2851555
20
9.9218747
11
28.5253898
21
14.8828121
0
LINE
8
DEFAULT_255_2_778
10
28.5253898
20
14.8828121
11
26.0449212
21
14.8828121
0
LINE
8
DEFAULT_255_2_778
10
17.3632742
20
34.7265615
11
17.0532156
21
29.7656242
0
LINE
8
DEFAULT_255_2_778
10
17.0532156
20
29.7656242
11
19.5336842
21
30.3857413
0
LINE
8
DEFAULT_255_2_778
10
19.5336842
20
30.3857413
11
17.3632742
21
34.7265615
0
LINE
8
DEFAULT_4_2_778
10
32.2460929
20
50.849608
11
37.2070302
21
50.849608
0
LINE
8
DEFAULT_4_2_778
10
34.7265615
20
53.3300766
11
34.7265615
21
50.849608
0
LINE
8
DEFAULT_4_2_778
10
37.2070302
20
50.849608
11
42.1679676
21
50.849608
0
LINE
8
DEFAULT_4_2_778
10
39.6874989
20
53.3300766
11
39.6874989
21
50.849608
0
LINE
8
DEFAULT_4_2_778
10
42.1679676
20
50.849608
11
47.1289049
21
50.849608
0
LINE
8
DEFAULT_4_2_778
10
44.6484363
20
53.3300766
11
44.6484363
21
50.849608
0
LINE
8
DEFAULT_4_2_778
10
37.2070302
20
-6.2011717
11
42.1679676
21
-6.2011717
0
LINE
8
DEFAULT_4_2_778
10
39.6874989
20
-8.6816404
11
39.6874989
21
-6.2011717
0
LINE
8
DEFAULT_4_2_778
10
42.1679676
20
-6.2011717
11
47.1289049
21
-6.2011717
0
LINE
8
DEFAULT_4_2_778
10
44.6484363
20
-8.6816404
11
44.6484363
21
-6.2011717
0
LINE
8
DEFAULT_255_2_778
10
4.9609374
20
27.2851555
11
6.2011717
21
34.7265615
0
LINE
8
DEFAULT_255_2_778
10
6.2011717
20
34.7265615
11
7.441406
21
27.2851555
0
LINE
8
DEFAULT_255_2_778
10
7.441406
20
27.2851555
11
8.6816404
21
34.7265615
0
LINE
8
DEFAULT_255_2_778
10
8.6816404
20
34.7265615
11
9.9218747
21
27.2851555
0
LINE
8
DEFAULT_255_2_778
10
9.9218747
20
27.2851555
11
11.1621091
21
34.7265615
0
LINE
8
DEFAULT_255_2_778
10
11.1621091
20
34.7265615
11
12.4023434
21
27.2851555
0
LINE
8
DEFAULT_255_2_778
10
12.4023434
20
27.2851555
11
13.6425777
21
34.7265615
0
LINE
8
DEFAULT_255_2_778
10
3.720703
20
17.3632808
11
8.6816404
21
17.3632808
0
LINE
8
DEFAULT_255_2_778
10
8.6816404
20
17.3632808
11
8.6816404
21
9.9218747
0
LINE
8
DEFAULT_255_2_778
10
8.6816404
20
9.9218747
11
3.720703
21
9.9218747
0
LINE
8
DEFAULT_255_2_778
10
3.720703
20
9.9218747
11
3.720703
21
17.3632808
0
LINE
8
DEFAULT_255_2_778
10
8.6816536
20
6.2011585
11
2.4804819
21
24.8046736
0
LINE
8
DEFAULT_255_2_778
10
2.4804819
20
24.8046736
11
2.4804819
21
18.6035019
0
LINE
8
DEFAULT_255_2_778
10
2.4804819
20
18.6035019
11
6.2011849
21
19.6366187
0
LINE
8
DEFAULT_255_2_778
10
6.2011849
20
19.6366187
11
2.4804819
21
24.8046736
0
LINE
8
DEFAULT_255_2_778
10
8.6816404
20
17.3632808
11
13.6425777
21
17.3632808
0
LINE
8
DEFAULT_255_2_778
10
13.6425777
20
17.3632808
11
13.6425777
21
9.9218747
0
LINE
8
DEFAULT_255_2_778
10
13.6425777
20
9.9218747
11
8.6816404
21
9.9218747
0
LINE
8
DEFAULT_255_2_778
10
8.6816404
20
9.9218747
11
8.6816404
21
17.3632808
0
LINE
8
DEFAULT_255_2_778
10
8.6816404
20
17.3632808
11
11.1621091
21
13.6425777
0
LINE
8
DEFAULT_255_2_778
10
11.1621091
20
13.6425777
11
8.6816404
21
9.9218747
0
LINE
8
DEFAULT_255_2_778
10
74.4140604
20
27.2851555
11
73.1738261
21
34.7265615
0
LINE
8
DEFAULT_255_2_778
10
73.1738261
20
34.7265615
11
71.9335917
21
27.2851555
0
LINE
8
DEFAULT_255_2_778
10
71.9335917
20
27.2851555
11
70.6933574
21
34.7265615
0
LINE
8
DEFAULT_255_2_778
10
70.6933574
20
34.7265615
11
69.4531231
21
27.2851555
0
LINE
8
DEFAULT_255_2_778
10
69.4531231
20
27.2851555
11
68.2128887
21
34.7265615
0
LINE
8
DEFAULT_255_2_778
10
68.2128887
20
34.7265615
11
66.9726544
21
27.2851555
0
LINE
8
DEFAULT_255_2_778
10
66.9726544
20
27.2851555
11
65.73242
21
34.7265615
0
LINE
8
DEFAULT_255_2_778
10
70.6933574
20
17.3632808
11
75.6542948
21
17.3632808
0
LINE
8
DEFAULT_255_2_778
10
75.6542948
20
17.3632808
11
75.6542948
21
9.9218747
0
LINE
8
DEFAULT_255_2_778
10
75.6542948
20
9.9218747
11
70.6933574
21
9.9218747
0
LINE
8
DEFAULT_255_2_778
10
70.6933574
20
9.9218747
11
70.6933574
21
17.3632808
0
LINE
8
DEFAULT_255_2_778
10
70.6933706
20
6.2011585
11
76.8945423
21
24.8046736
0
LINE
8
DEFAULT_255_2_778
10
76.8945423
20
24.8046736
11
76.8945423
21
18.6035019
0
LINE
8
DEFAULT_255_2_778
10
76.8945423
20
18.6035019
11
73.1738393
21
19.6366187
0
LINE
8
DEFAULT_255_2_778
10
73.1738393
20
19.6366187
11
76.8945423
21
24.8046736
0
LINE
8
DEFAULT_255_2_778
10
65.73242
20
17.3632808
11
70.6933574
21
17.3632808
0
LINE
8
DEFAULT_255_2_778
10
70.6933574
20
17.3632808
11
70.6933574
21
9.9218747
0
LINE
8
DEFAULT_255_2_778
10
70.6933574
20
9.9218747
11
65.73242
21
9.9218747
0
LINE
8
DEFAULT_255_2_778
10
65.73242
20
9.9218747
11
65.73242
21
17.3632808
0
LINE
8
DEFAULT_255_2_778
10
70.6933574
20
17.3632808
11
68.2128887
21
13.6425777
0
LINE
8
DEFAULT_255_2_778
10
68.2128887
20
13.6425777
11
70.6933574
21
9.9218747
0
ENDSEC
0
EOF