0
SECTION
2
HEADER
0
ENDSEC
0
SECTION
2
TABLES
0
TABLE
2
LTYPE
0
LTYPE
72
65
70
64
2
CONTINUOUS
3
______
73
0
40
0
0
ENDTAB
0
TABLE
2
LAYER
0
LAYER
2
DEFAULT_255_2_778
70
0
62
255
6
CONTINUOUS
0
LAYER
2
DEFAULT_4_2_778
70
0
62
4
6
CONTINUOUS
0
ENDTAB
0
ENDSEC
0
SECTION
2
ENTITIES
0
ARC
8
0
10
9.9189736
20
11.1649998
40
1.2373366
50
147.4064861
51
180.1338596
0
ARC
8
0
10
9.9185119
20
11.1654849
40
1.2366863
50
96.4511647
51
147.4138983
0
ARC
8
0
10
9.9215895
20
11.1380906
40
1.2642529
50
89.9870721
51
96.4502643
0
ARC
8
0
10
9.9247652
20
11.16501
40
1.2373368
50
57.4064552
51
90.1338443
0
ARC
8
0
10
9.9252506
20
11.1654721
40
1.2366862
50
6.4511465
51
57.4138698
0
ARC
8
0
10
9.8978579
20
11.1623943
40
1.2642513
50
359.9870722
51
6.4502645
0
ARC
8
0
10
9.9247759
20
11.1592183
40
1.2373366
50
327.4064861
51
0.1338596
0
ARC
8
0
10
9.9252375
20
11.1587332
40
1.2366863
50
276.4511647
51
327.4138983
0
ARC
8
0
10
9.92216
20
11.1861275
40
1.2642529
50
269.9870721
51
276.4502643
0
ARC
8
0
10
9.9189843
20
11.1592081
40
1.2373368
50
237.4064552
51
270.1338443
0
ARC
8
0
10
9.9184989
20
11.1587461
40
1.2366862
50
186.4511465
51
237.4138698
0
ARC
8
0
10
9.9458916
20
11.1618238
40
1.2642513
50
179.9870722
51
186.4502645
0
LINE
8
DEFAULT_255_2_778
10
8.6816404
20
11.1621091
11
8.6816404
21
11.1621091
0
ARC
8
0
10
9.947856
20
11.1659098
40
3.7466862
50
164.24932
51
180.058123
0
ARC
8
0
10
9.9076816
20
11.1735081
40
3.7059594
50
136.0208424
51
164.1937787
0
ARC
8
0
10
9.9114032
20
11.174557
40
3.7079104
50
106.5476142
51
136.0724388
0
ARC
8
0
10
9.9173324
20
11.1412049
40
3.7415718
50
90.4624304
51
106.4891876
0
ARC
8
0
10
9.9218778
20
11.0482873
40
3.834525
50
90.0000467
51
90.519141
0
ARC
8
0
10
9.9256755
20
11.1361307
40
3.7466833
50
74.2493137
51
90.0581229
0
ARC
8
0
10
9.9332743
20
11.1763029
40
3.7059585
50
46.0208516
51
74.1937905
0
ARC
8
0
10
9.9343227
20
11.1725809
40
3.7079103
50
16.5476188
51
46.0724466
0
ARC
8
0
10
9.900968
20
11.1666516
40
3.7415743
50
0.4624273
51
16.4891818
0
ARC
8
0
10
9.8080501
20
11.1621059
40
3.8345278
50
0.0000467
51
0.519141
0
ARC
8
0
10
9.8958935
20
11.1583083
40
3.7466862
50
344.2493201
51
0.058123
0
ARC
8
0
10
9.9360681
20
11.15071
40
3.7059592
50
316.0208426
51
344.1937789
0
ARC
8
0
10
9.9323472
20
11.1496593
40
3.7079086
50
286.5476101
51
316.0724497
0
ARC
8
0
10
9.9264172
20
11.183013
40
3.7415717
50
270.4624277
51
286.4891883
0
ARC
8
0
10
9.9218716
20
11.2759318
40
3.8345259
50
270.0000467
51
270.519141
0
ARC
8
0
10
9.9180741
20
11.1880875
40
3.7466834
50
254.2493143
51
270.0581204
0
ARC
8
0
10
9.9104761
20
11.1479162
40
3.7059597
50
226.0208538
51
254.1937831
0
ARC
8
0
10
9.9094248
20
11.1516364
40
3.7079082
50
196.5476142
51
226.0724606
0
ARC
8
0
10
9.9427815
20
11.1575666
40
3.7415743
50
180.4624273
51
196.4891818
0
ARC
8
0
10
10.0356993
20
11.1621122
40
3.8345278
50
180.0000467
51
180.519141
0
LINE
8
DEFAULT_255_2_778
10
6.2011717
20
11.1621091
11
6.2011717
21
11.1621091
0
LINE
8
DEFAULT_255_2_778
10
13.642591
20
12.4023434
11
17.363294
21
12.4023434
0
LINE
8
DEFAULT_255_2_778
10
13.642591
20
9.9218747
11
17.363294
21
9.9218747
0
LINE
8
DEFAULT_255_2_778
10
64.4921989
20
6.2011717
11
40.9277465
21
6.2011717
0
LINE
8
DEFAULT_255_2_778
10
40.9277465
20
6.2011717
11
40.9277465
21
38.4472646
0
LINE
8
DEFAULT_255_2_778
10
40.9277465
20
38.4472646
11
64.4921989
21
38.4472646
0
LINE
8
DEFAULT_255_2_778
10
64.4921989
20
38.4472646
11
64.4921989
21
6.2011717
0
LINE
8
DEFAULT_255_2_778
10
24.8046868
20
6.2011585
11
24.8046868
21
14.8827989
0
LINE
8
DEFAULT_255_2_778
10
22.3242181
20
14.8828121
11
27.2851555
21
14.8828121
0
LINE
8
DEFAULT_255_2_778
10
33.4863404
20
6.2011717
11
34.1064576
21
13.6425777
0
LINE
8
DEFAULT_255_2_778
10
34.1064576
20
13.6425777
11
29.1455202
21
12.4023434
0
LINE
8
DEFAULT_255_2_778
10
29.1455202
20
12.4023434
11
33.4863404
21
6.2011717
0
LINE
8
DEFAULT_255_2_778
10
33.4863404
20
6.2011717
11
24.8047
21
38.4472646
0
LINE
8
DEFAULT_255_2_778
10
40.9277465
20
6.2011717
11
17.363294
21
6.2011717
0
LINE
8
DEFAULT_255_2_778
10
17.363294
20
6.2011717
11
17.363294
21
38.4472646
0
LINE
8
DEFAULT_255_2_778
10
17.363294
20
38.4472646
11
40.9277465
21
38.4472646
0
LINE
8
DEFAULT_255_2_778
10
40.9277465
20
38.4472646
11
40.9277465
21
6.2011717
0
LINE
8
DEFAULT_255_2_778
10
57.0507797
20
-6.2011849
11
57.0507797
21
14.8827989
0
LINE
8
DEFAULT_255_2_778
10
54.570311
20
14.8828121
11
59.5312483
21
14.8828121
0
LINE
8
DEFAULT_255_2_778
10
45.8886706
20
31.0058585
11
48.3691393
21
38.4472646
0
LINE
8
DEFAULT_255_2_778
10
48.3691393
20
38.4472646
11
50.849608
21
31.0058585
0
LINE
8
DEFAULT_255_2_778
10
50.849608
20
31.0058585
11
45.8886706
21
31.0058585
0
LINE
8
DEFAULT_255_2_778
10
48.3691393
20
-6.2011717
11
48.3691393
21
50.849608
0
LINE
8
DEFAULT_255_2_778
10
73.1738393
20
6.2011585
11
71.933605
21
17.3632675
0
LINE
8
DEFAULT_255_2_778
10
71.933605
20
17.3632675
11
70.6933706
21
6.2011585
0
LINE
8
DEFAULT_255_2_778
10
70.6933706
20
6.2011585
11
69.4531363
21
17.3632675
0
LINE
8
DEFAULT_255_2_778
10
69.4531363
20
17.3632675
11
68.212902
21
6.2011585
0
LINE
8
DEFAULT_255_2_778
10
68.212902
20
6.2011585
11
66.9726676
21
17.3632675
0
LINE
8
DEFAULT_255_2_778
10
66.9726676
20
17.3632675
11
65.7324333
21
6.2011585
0
LINE
8
DEFAULT_255_2_778
10
65.7324333
20
6.2011585
11
64.4921989
21
17.3632675
0
LINE
8
DEFAULT_4_2_778
10
45.8886706
20
-6.2011717
11
50.849608
21
-6.2011717
0
LINE
8
DEFAULT_4_2_778
10
48.3691525
20
-8.6816404
11
48.3691525
21
-6.2011717
0
LINE
8
DEFAULT_4_2_778
10
54.5703242
20
-6.2011717
11
59.5312616
21
-6.2011717
0
LINE
8
DEFAULT_4_2_778
10
57.0507797
20
-8.6816404
11
57.0507797
21
-6.2011717
0
LINE
8
DEFAULT_4_2_778
10
45.8886706
20
50.849608
11
50.849608
21
50.849608
0
LINE
8
DEFAULT_4_2_778
10
48.3691393
20
53.3300766
11
48.3691393
21
50.849608
0
ENDSEC
0
EOF