0
SECTION
2
HEADER
0
ENDSEC
0
SECTION
2
TABLES
0
TABLE
2
LTYPE
0
LTYPE
72
65
70
64
2
CONTINUOUS
3
______
73
0
40
0
0
ENDTAB
0
TABLE
2
LAYER
0
LAYER
2
DEFAULT_255_2_778
70
0
62
255
6
CONTINUOUS
0
LAYER
2
DEFAULT_4_2_778
70
0
62
4
6
CONTINUOUS
0
ENDTAB
0
ENDSEC
0
SECTION
2
ENTITIES
0
LINE
8
DEFAULT_255_2_778
10
70.0732402
20
7.441406
11
41.5478504
21
7.441406
0
LINE
8
DEFAULT_255_2_778
10
41.5478504
20
7.441406
11
41.5478504
21
37.2070302
0
LINE
8
DEFAULT_255_2_778
10
41.5478504
20
37.2070302
11
70.0732402
21
37.2070302
0
LINE
8
DEFAULT_255_2_778
10
70.0732402
20
37.2070302
11
70.0732402
21
7.441406
0
LINE
8
DEFAULT_255_2_778
10
46.508801
20
50.849608
11
46.508801
21
-6.2011717
0
LINE
8
DEFAULT_255_2_778
10
44.6484495
20
29.7656242
11
46.508801
21
37.2070302
0
LINE
8
DEFAULT_255_2_778
10
46.508801
20
37.2070302
11
48.3691525
21
29.7656242
0
LINE
8
DEFAULT_255_2_778
10
48.3691525
20
29.7656242
11
44.6484495
21
29.7656242
0
LINE
8
DEFAULT_255_2_778
10
44.6484495
20
14.8828121
11
46.508801
21
7.441406
0
LINE
8
DEFAULT_255_2_778
10
46.508801
20
7.441406
11
48.3691525
21
14.8828121
0
LINE
8
DEFAULT_255_2_778
10
48.3691525
20
14.8828121
11
44.6484495
21
14.8828121
0
LINE
8
DEFAULT_255_2_778
10
52.7099727
20
50.8495947
11
52.7099727
21
27.2851423
0
LINE
8
DEFAULT_255_2_778
10
50.2294908
20
27.2851555
11
55.1904282
21
27.2851555
0
LINE
8
DEFAULT_255_2_778
10
58.9111312
20
50.849608
11
58.9111312
21
-6.2011717
0
LINE
8
DEFAULT_255_2_778
10
57.0507929
20
29.7656242
11
58.9111444
21
37.2070302
0
LINE
8
DEFAULT_255_2_778
10
58.9111444
20
37.2070302
11
60.7714959
21
29.7656242
0
LINE
8
DEFAULT_255_2_778
10
60.7714959
20
29.7656242
11
57.0507929
21
29.7656242
0
LINE
8
DEFAULT_255_2_778
10
57.0507929
20
14.8828121
11
58.9111444
21
7.441406
0
LINE
8
DEFAULT_255_2_778
10
58.9111444
20
7.441406
11
60.7714959
21
14.8828121
0
LINE
8
DEFAULT_255_2_778
10
60.7714959
20
14.8828121
11
57.0507929
21
14.8828121
0
LINE
8
DEFAULT_255_2_778
10
65.1123161
20
50.8495947
11
65.1123161
21
27.2851423
0
LINE
8
DEFAULT_255_2_778
10
62.6318474
20
27.2851555
11
67.5927848
21
27.2851555
0
LINE
8
DEFAULT_255_2_778
10
36.5869263
20
37.2070302
11
37.2070434
21
29.7656242
0
LINE
8
DEFAULT_255_2_778
10
37.2070434
20
29.7656242
11
33.4863404
21
31.0058585
0
LINE
8
DEFAULT_255_2_778
10
33.4863404
20
31.0058585
11
36.5869263
21
37.2070302
0
LINE
8
DEFAULT_255_2_778
10
30.3857546
20
7.441406
11
29.7656374
21
14.8828121
0
LINE
8
DEFAULT_255_2_778
10
29.7656374
20
14.8828121
11
33.4863404
21
13.6425777
0
LINE
8
DEFAULT_255_2_778
10
33.4863404
20
13.6425777
11
30.3857546
21
7.441406
0
LINE
8
DEFAULT_4_2_778
10
50.229504
20
50.849608
11
55.1904414
21
50.849608
0
LINE
8
DEFAULT_4_2_778
10
52.7099727
20
53.3300766
11
52.7099727
21
50.849608
0
LINE
8
DEFAULT_4_2_778
10
56.4306757
20
50.849608
11
61.3916131
21
50.849608
0
LINE
8
DEFAULT_4_2_778
10
58.9111444
20
53.3300766
11
58.9111444
21
50.849608
0
LINE
8
DEFAULT_4_2_778
10
62.6318474
20
50.849608
11
67.5927848
21
50.849608
0
LINE
8
DEFAULT_4_2_778
10
65.1123161
20
53.3300766
11
65.1123161
21
50.849608
0
LINE
8
DEFAULT_255_2_778
10
41.5478504
20
7.441406
11
13.0224606
21
7.441406
0
LINE
8
DEFAULT_255_2_778
10
13.0224606
20
7.441406
11
13.0224606
21
37.2070302
0
LINE
8
DEFAULT_255_2_778
10
13.0224606
20
37.2070302
11
41.5478504
21
37.2070302
0
LINE
8
DEFAULT_255_2_778
10
41.5478504
20
37.2070302
11
41.5478504
21
7.441406
0
LINE
8
DEFAULT_255_2_778
10
17.9833979
20
37.2070302
11
17.9833979
21
22.3242181
0
LINE
8
DEFAULT_255_2_778
10
17.9833979
20
22.3242181
11
30.3857413
21
22.3242181
0
LINE
8
DEFAULT_255_2_778
10
30.3857413
20
22.3242181
11
30.3857413
21
37.2070302
0
LINE
8
DEFAULT_255_2_778
10
36.586913
20
37.2070302
11
30.3857413
21
7.441406
0
LINE
8
DEFAULT_255_2_778
10
24.1845829
20
37.2070302
11
24.8047
21
29.7656242
0
LINE
8
DEFAULT_255_2_778
10
24.8047
20
29.7656242
11
21.083997
21
31.0058585
0
LINE
8
DEFAULT_255_2_778
10
21.083997
20
31.0058585
11
24.1845829
21
37.2070302
0
LINE
8
DEFAULT_255_2_778
10
17.9834112
20
7.441406
11
17.363294
21
14.8828121
0
LINE
8
DEFAULT_255_2_778
10
17.363294
20
14.8828121
11
21.083997
21
13.6425777
0
LINE
8
DEFAULT_255_2_778
10
21.083997
20
13.6425777
11
17.9834112
21
7.441406
0
LINE
8
DEFAULT_255_2_778
10
24.1845696
20
37.2070302
11
17.9833979
21
7.441406
0
LINE
8
DEFAULT_4_2_778
10
44.0283323
20
50.849608
11
48.9892697
21
50.849608
0
LINE
8
DEFAULT_4_2_778
10
46.508801
20
53.3300766
11
46.508801
21
50.849608
0
LINE
8
DEFAULT_4_2_778
10
44.0283323
20
-6.2011717
11
48.9892697
21
-6.2011717
0
LINE
8
DEFAULT_4_2_778
10
46.508801
20
-8.6816404
11
46.508801
21
-6.2011717
0
LINE
8
DEFAULT_4_2_778
10
56.4306757
20
-6.2011717
11
61.3916131
21
-6.2011717
0
LINE
8
DEFAULT_4_2_778
10
58.9111444
20
-8.6816404
11
58.9111444
21
-6.2011717
0
LINE
8
DEFAULT_255_2_778
10
70.0732535
20
7.441406
11
71.3134878
21
17.3632808
0
LINE
8
DEFAULT_255_2_778
10
71.3134878
20
17.3632808
11
72.5537221
21
7.441406
0
LINE
8
DEFAULT_255_2_778
10
72.5537221
20
7.441406
11
73.7939565
21
17.3632808
0
LINE
8
DEFAULT_255_2_778
10
73.7939565
20
17.3632808
11
75.0341908
21
7.441406
0
LINE
8
DEFAULT_255_2_778
10
75.0341908
20
7.441406
11
76.2744252
21
17.3632808
0
LINE
8
DEFAULT_255_2_778
10
76.2744252
20
17.3632808
11
77.5146595
21
7.441406
0
LINE
8
DEFAULT_255_2_778
10
22.3242314
20
14.8828121
11
24.1845829
21
7.441406
0
LINE
8
DEFAULT_255_2_778
10
24.1845829
20
7.441406
11
26.0449344
21
14.8828121
0
LINE
8
DEFAULT_255_2_778
10
26.0449344
20
14.8828121
11
22.3242314
21
14.8828121
0
LINE
8
DEFAULT_255_2_778
10
16.1230597
20
29.7656242
11
17.9834112
21
37.2070302
0
LINE
8
DEFAULT_255_2_778
10
17.9834112
20
37.2070302
11
19.8437627
21
29.7656242
0
LINE
8
DEFAULT_255_2_778
10
19.8437627
20
29.7656242
11
16.1230597
21
29.7656242
0
LINE
8
DEFAULT_255_2_778
10
28.5254031
20
29.7656242
11
30.3857546
21
37.2070302
0
LINE
8
DEFAULT_255_2_778
10
30.3857546
20
37.2070302
11
32.2461061
21
29.7656242
0
LINE
8
DEFAULT_255_2_778
10
32.2461061
20
29.7656242
11
28.5254031
21
29.7656242
0
LINE
8
DEFAULT_255_2_778
10
24.1845829
20
7.441406
11
24.1845829
21
22.3242181
0
ARC
8
0
10
5.5781687
20
12.4052339
40
1.2373387
50
147.4065307
51
180.1338448
0
ARC
8
0
10
5.5777046
20
12.4057199
40
1.2366858
50
96.4511543
51
147.4139177
0
ARC
8
0
10
5.5807827
20
12.3783188
40
1.264259
50
89.9870789
51
96.4502438
0
ARC
8
0
10
5.5839584
20
12.4052443
40
1.2373368
50
57.4064547
51
90.1338528
0
ARC
8
0
10
5.5844431
20
12.4057062
40
1.2366867
50
6.4511526
51
57.4138476
0
ARC
8
0
10
5.5570509
20
12.4026287
40
1.2642513
50
359.9870722
51
6.4502645
0
ARC
8
0
10
5.5839668
20
12.3994529
40
1.2373387
50
327.4065307
51
0.1338448
0
ARC
8
0
10
5.584431
20
12.3989669
40
1.2366858
50
276.4511543
51
327.4139177
0
ARC
8
0
10
5.5813529
20
12.426368
40
1.264259
50
269.9870789
51
276.4502438
0
ARC
8
0
10
5.5781771
20
12.3994425
40
1.2373368
50
237.4064547
51
270.1338528
0
ARC
8
0
10
5.5776924
20
12.3989806
40
1.2366867
50
186.4511526
51
237.4138476
0
ARC
8
0
10
5.6050846
20
12.4020581
40
1.2642513
50
179.9870722
51
186.4502645
0
LINE
8
DEFAULT_255_2_778
10
4.3408334
20
12.4023434
11
4.3408334
21
12.4023434
0
ARC
8
0
10
5.607049
20
12.4061442
40
3.7466862
50
164.24932
51
180.058123
0
ARC
8
0
10
5.5668745
20
12.4137424
40
3.7059593
50
136.0208425
51
164.1937788
0
ARC
8
0
10
5.5705961
20
12.4147914
40
3.7079104
50
106.547614
51
136.0724387
0
ARC
8
0
10
5.5765254
20
12.381439
40
3.7415721
50
90.4624303
51
106.4891875
0
ARC
8
0
10
5.5810709
20
12.2885211
40
3.8345254
50
90.0000467
51
90.519141
0
ARC
8
0
10
5.5848684
20
12.3763649
40
3.7466834
50
74.2493143
51
90.0581204
0
ARC
8
0
10
5.5924664
20
12.4165362
40
3.7059597
50
46.0208538
51
74.1937831
0
ARC
8
0
10
5.5935177
20
12.4128161
40
3.7079082
50
16.5476142
51
46.0724606
0
ARC
8
0
10
5.560161
20
12.4068859
40
3.7415743
50
0.4624273
51
16.4891818
0
ARC
8
0
10
5.4672432
20
12.4023403
40
3.8345278
50
0.0000467
51
0.519141
0
ARC
8
0
10
5.5550865
20
12.3985426
40
3.7466862
50
344.24932
51
0.058123
0
ARC
8
0
10
5.5952609
20
12.3909444
40
3.7059594
50
316.0208424
51
344.1937787
0
ARC
8
0
10
5.5915393
20
12.3898954
40
3.7079104
50
286.5476142
51
316.0724388
0
ARC
8
0
10
5.5856101
20
12.4232475
40
3.7415718
50
270.4624304
51
286.4891876
0
ARC
8
0
10
5.5810646
20
12.5161652
40
3.834525
50
270.0000467
51
270.519141
0
ARC
8
0
10
5.577267
20
12.4283215
40
3.746683
50
254.2493137
51
270.0581228
0
ARC
8
0
10
5.5696682
20
12.3881496
40
3.7059585
50
226.0208515
51
254.1937904
0
ARC
8
0
10
5.5686177
20
12.3918707
40
3.7079082
50
196.5476141
51
226.0724605
0
ARC
8
0
10
5.6019745
20
12.3978009
40
3.7415743
50
180.4624273
51
196.4891818
0
ARC
8
0
10
5.6948924
20
12.4023465
40
3.8345278
50
180.0000467
51
180.519141
0
LINE
8
DEFAULT_255_2_778
10
1.8603647
20
12.4023434
11
1.8603647
21
12.4023434
0
LINE
8
DEFAULT_255_2_778
10
9.3017576
20
13.6425777
11
13.0224606
21
13.6425777
0
LINE
8
DEFAULT_255_2_778
10
9.3017576
20
11.1621091
11
13.0224606
21
11.1621091
0
ENDSEC
0
EOF