0
SECTION
2
HEADER
0
ENDSEC
0
SECTION
2
TABLES
0
TABLE
2
LTYPE
0
LTYPE
72
65
70
64
2
CONTINUOUS
3
______
73
0
40
0
0
ENDTAB
0
TABLE
2
LAYER
0
LAYER
2
DEFAULT_255_2_778
70
0
62
255
6
CONTINUOUS
0
LAYER
2
DEFAULT_4_2_778
70
0
62
4
6
CONTINUOUS
0
ENDTAB
0
ENDSEC
0
SECTION
2
ENTITIES
0
LINE
8
DEFAULT_255_2_778
10
20.4638798
20
-6.8213021
11
77.5146595
21
-6.8213021
0
LINE
8
DEFAULT_255_2_778
10
77.5146595
20
-6.8213021
11
77.5146595
21
-11.7822395
0
LINE
8
DEFAULT_255_2_778
10
77.5146595
20
-11.7822395
11
20.4638798
21
-11.7822395
0
LINE
8
DEFAULT_255_2_778
10
20.4638798
20
-11.7822395
11
20.4638798
21
-6.8213021
0
LINE
8
DEFAULT_4_2_778
10
5.5810678
20
19.223619
11
10.5420051
21
19.223619
0
LINE
8
DEFAULT_255_2_778
10
14.2626949
20
0.6201039
11
20.4638666
21
0.6201039
0
LINE
8
DEFAULT_255_2_778
10
20.4638666
20
0.6201039
11
20.4638666
21
-19.2236455
0
LINE
8
DEFAULT_255_2_778
10
20.4638666
20
-19.2236455
11
14.2626949
21
-19.2236455
0
LINE
8
DEFAULT_255_2_778
10
14.2626949
20
-19.2236455
11
14.2626949
21
0.6201039
0
LINE
8
DEFAULT_4_2_778
10
8.0615364
20
21.7040877
11
8.0615364
21
19.223619
0
LINE
8
DEFAULT_255_2_778
10
1.8603647
20
0.6201039
11
58.9111444
21
0.6201039
0
LINE
8
DEFAULT_255_2_778
10
58.9111444
20
0.6201039
11
58.9111444
21
-19.2236455
0
LINE
8
DEFAULT_255_2_778
10
58.9111444
20
-19.2236455
11
1.8603647
21
-19.2236455
0
LINE
8
DEFAULT_255_2_778
10
1.8603647
20
-19.2236455
11
1.8603647
21
0.6201039
0
LINE
8
DEFAULT_255_2_778
10
8.0615364
20
19.2236323
11
8.0615364
21
0.6201172
0
ENDSEC
0
EOF